  0
SECTION
  2
HEADER
  9
$ACADVER
  1
AC1015
  9
$ACADMAINTVER
 70
     6
  9
$DWGCODEPAGE
  3
ANSI_1254
  9
$INSBASE
 10
0.0
 20
0.0
 30
0.0
  9
$EXTMIN
 10
0.0
 20
0.0
 30
0.0
  9
$EXTMAX
 10
279.4
 20
215.9
 30
0.0
  9
$LIMMIN
 10
0.0
 20
0.0
  9
$LIMMAX
 10
279.4
 20
215.9
  9
$ORTHOMODE
 70
     0
  9
$REGENMODE
 70
     1
  9
$FILLMODE
 70
     1
  9
$QTEXTMODE
 70
     0
  9
$MIRRTEXT
 70
     1
  9
$LTSCALE
 40
1.0
  9
$ATTMODE
 70
     1
  9
$TEXTSIZE
 40
3.5
  9
$TRACEWID
 40
1.0
  9
$TEXTSTYLE
  7
Standard
  9
$CLAYER
  8
0
  9
$CELTYPE
  6
ByLayer
  9
$CECOLOR
 62
   256
  9
$CELTSCALE
 40
1.0
  9
$DISPSILH
 70
     0
  9
$DIMSCALE
 40
1.0
  9
$DIMASZ
 40
3.5
  9
$DIMEXO
 40
1.0
  9
$DIMDLI
 40
3.75
  9
$DIMRND
 40
0.0
  9
$DIMDLE
 40
0.0
  9
$DIMEXE
 40
1.0
  9
$DIMTP
 40
0.0
  9
$DIMTM
 40
0.0
  9
$DIMTXT
 40
2.8222222222
  9
$DIMCEN
 40
2.5
  9
$DIMTSZ
 40
0.0
  9
$DIMTOL
 70
     0
  9
$DIMLIM
 70
     0
  9
$DIMTIH
 70
     1
  9
$DIMTOH
 70
     1
  9
$DIMSE1
 70
     0
  9
$DIMSE2
 70
     0
  9
$DIMTAD
 70
     1
  9
$DIMZIN
 70
     0
  9
$DIMBLK
  1

  9
$DIMASO
 70
     1
  9
$DIMSHO
 70
     1
  9
$DIMPOST
  1

  9
$DIMAPOST
  1

  9
$DIMALT
 70
     0
  9
$DIMALTD
 70
     3
  9
$DIMALTF
 40
0.0393700787
  9
$DIMLFAC
 40
1.0
  9
$DIMTOFL
 70
     1
  9
$DIMTVP
 40
0.0
  9
$DIMTIX
 70
     0
  9
$DIMSOXD
 70
     0
  9
$DIMSAH
 70
     0
  9
$DIMBLK1
  1

  9
$DIMBLK2
  1

  9
$DIMSTYLE
  2
ISO-25
  9
$DIMCLRD
 70
     0
  9
$DIMCLRE
 70
     0
  9
$DIMCLRT
 70
     0
  9
$DIMTFAC
 40
1.0
  9
$DIMGAP
 40
1.524
  9
$DIMJUST
 70
     0
  9
$DIMSD1
 70
     0
  9
$DIMSD2
 70
     0
  9
$DIMTOLJ
 70
     0
  9
$DIMTZIN
 70
     0
  9
$DIMALTZ
 70
     0
  9
$DIMALTTZ
 70
     0
  9
$DIMUPT
 70
     0
  9
$DIMDEC
 70
     2
  9
$DIMTDEC
 70
     2
  9
$DIMALTU
 70
     2
  9
$DIMALTTD
 70
     3
  9
$DIMTXSTY
  7
Standard
  9
$DIMAUNIT
 70
     0
  9
$DIMADEC
 70
     2
  9
$DIMALTRND
 40
0.0
  9
$DIMAZIN
 70
     0
  9
$DIMDSEP
 70
    44
  9
$DIMATFIT
 70
     3
  9
$DIMFRAC
 70
     0
  9
$DIMLDRBLK
  1

  9
$DIMLUNIT
 70
     2
  9
$DIMLWD
 70
    -2
  9
$DIMLWE
 70
    -2
  9
$DIMTMOVE
 70
     0
  9
$LUNITS
 70
     2
  9
$LUPREC
 70
     2
  9
$SKETCHINC
 40
1.0
  9
$FILLETRAD
 40
10.0
  9
$AUNITS
 70
     0
  9
$AUPREC
 70
     2
  9
$MENU
  1
.
  9
$ELEVATION
 40
0.0
  9
$PELEVATION
 40
0.0
  9
$THICKNESS
 40
0.0
  9
$LIMCHECK
 70
     0
  9
$CHAMFERA
 40
0.0
  9
$CHAMFERB
 40
0.0
  9
$CHAMFERC
 40
0.0
  9
$CHAMFERD
 40
0.0
  9
$SKPOLY
 70
     0
  9
$TDCREATE
 40
2460340.730290255
  9
$TDUCREATE
 40
2460340.605290255
  9
$TDUPDATE
 40
2460340.73029044
  9
$TDUUPDATE
 40
2460340.60529044
  9
$TDINDWG
 40
0.0000000116
  9
$TDUSRTIMER
 40
0.0000000116
  9
$USRTIMER
 70
     1
  9
$ANGBASE
 50
0.0
  9
$ANGDIR
 70
     0
  9
$PDMODE
 70
     0
  9
$PDSIZE
 40
-1.0
  9
$PLINEWID
 40
0.0
  9
$SPLFRAME
 70
     0
  9
$SPLINETYPE
 70
     6
  9
$SPLINESEGS
 70
     8
  9
$HANDSEED
  5
123
  9
$SURFTAB1
 70
     6
  9
$SURFTAB2
 70
     6
  9
$SURFTYPE
 70
     6
  9
$SURFU
 70
     6
  9
$SURFV
 70
     6
  9
$UCSBASE
  2

  9
$UCSNAME
  2

  9
$UCSORG
 10
0.0
 20
0.0
 30
0.0
  9
$UCSXDIR
 10
1.0
 20
0.0
 30
0.0
  9
$UCSYDIR
 10
0.0
 20
1.0
 30
0.0
  9
$UCSORTHOREF
  2

  9
$UCSORTHOVIEW
 70
     0
  9
$UCSORGTOP
 10
0.0
 20
0.0
 30
0.0
  9
$UCSORGBOTTOM
 10
0.0
 20
0.0
 30
0.0
  9
$UCSORGLEFT
 10
0.0
 20
0.0
 30
0.0
  9
$UCSORGRIGHT
 10
0.0
 20
0.0
 30
0.0
  9
$UCSORGFRONT
 10
0.0
 20
0.0
 30
0.0
  9
$UCSORGBACK
 10
0.0
 20
0.0
 30
0.0
  9
$PUCSBASE
  2

  9
$PUCSNAME
  2

  9
$PUCSORG
 10
0.0
 20
0.0
 30
0.0
  9
$PUCSXDIR
 10
1.0
 20
0.0
 30
0.0
  9
$PUCSYDIR
 10
0.0
 20
1.0
 30
0.0
  9
$PUCSORTHOREF
  2

  9
$PUCSORTHOVIEW
 70
     0
  9
$PUCSORGTOP
 10
0.0
 20
0.0
 30
0.0
  9
$PUCSORGBOTTOM
 10
0.0
 20
0.0
 30
0.0
  9
$PUCSORGLEFT
 10
0.0
 20
0.0
 30
0.0
  9
$PUCSORGRIGHT
 10
0.0
 20
0.0
 30
0.0
  9
$PUCSORGFRONT
 10
0.0
 20
0.0
 30
0.0
  9
$PUCSORGBACK
 10
0.0
 20
0.0
 30
0.0
  9
$USERI1
 70
     0
  9
$USERI2
 70
     0
  9
$USERI3
 70
     0
  9
$USERI4
 70
     0
  9
$USERI5
 70
     0
  9
$USERR1
 40
0.0
  9
$USERR2
 40
0.0
  9
$USERR3
 40
0.0
  9
$USERR4
 40
0.0
  9
$USERR5
 40
0.0
  9
$WORLDVIEW
 70
     1
  9
$SHADEDGE
 70
     3
  9
$SHADEDIF
 70
    70
  9
$TILEMODE
 70
     1
  9
$MAXACTVP
 70
    64
  9
$PINSBASE
 10
0.0
 20
0.0
 30
0.0
  9
$PLIMCHECK
 70
     0
  9
$PEXTMIN
 10
1.0000000000E+20
 20
1.0000000000E+20
 30
1.0000000000E+20
  9
$PEXTMAX
 10
-1.0000000000E+20
 20
-1.0000000000E+20
 30
-1.0000000000E+20
  9
$PLIMMIN
 10
0.0
 20
0.0
  9
$PLIMMAX
 10
420.0
 20
297.0
  9
$UNITMODE
 70
     0
  9
$VISRETAIN
 70
     1
  9
$PLINEGEN
 70
     0
  9
$PSLTSCALE
 70
     1
  9
$TREEDEPTH
 70
  3020
  9
$CMLSTYLE
  2
Standard
  9
$CMLJUST
 70
     0
  9
$CMLSCALE
 40
20.0
  9
$PROXYGRAPHICS
 70
     1
  9
$MEASUREMENT
 70
     1
  9
$CELWEIGHT
370
    -1
  9
$ENDCAPS
280
     0
  9
$JOINSTYLE
280
     0
  9
$LWDISPLAY
290
     1
  9
$INSUNITS
 70
     4
  9
$HYPERLINKBASE
  1

  9
$STYLESHEET
  1

  9
$XEDIT
290
     1
  9
$CEPSNTYPE
380
     0
  9
$PSTYLEMODE
290
     1
  9
$FINGERPRINTGUID
  2
{4a3bcf48-9bb7-4869-897b-fe80c2368338}
  9
$VERSIONGUID
  2
{FAEB1C32-E019-11D5-929B-00C0DF256EC4}
  9
$EXTNAMES
290
     1
  9
$PSVPSCALE
 40
0.0
  9
$OLESTARTUP
290
     0
  0
ENDSEC
  0
SECTION
  2
CLASSES
  0
CLASS
  1
ACDBDICTIONARYWDFLT
  2
AcDbDictionaryWithDefault
  3
ObjectDBX Classes
 90
        0
280
     0
281
     0
  0
CLASS
  1
VISUALSTYLE
  2
AcDbVisualStyle
  3
ObjectDBX Classes
 90
     4095
280
     0
281
     0
  0
CLASS
  1
MATERIAL
  2
AcDbMaterial
  3
ObjectDBX Classes
 90
     1153
280
     0
281
     0
  0
CLASS
  1
SCALE
  2
AcDbScale
  3
ObjectDBX Classes
 90
     1153
280
     0
281
     0
  0
CLASS
  1
TABLESTYLE
  2
AcDbTableStyle
  3
ObjectDBX Classes
 90
     4095
280
     0
281
     0
  0
CLASS
  1
MLEADERSTYLE
  2
AcDbMLeaderStyle
  3
ACDB_MLEADERSTYLE_CLASS
 90
     4095
280
     0
281
     0
  0
CLASS
  1
SUN
  2
AcDbSun
  3
SCENEOE
 90
     1153
280
     0
281
     0
  0
CLASS
  1
ACDBPLACEHOLDER
  2
AcDbPlaceHolder
  3
ObjectDBX Classes
 90
        0
280
     0
281
     0
  0
CLASS
  1
LAYOUT
  2
AcDbLayout
  3
ObjectDBX Classes
 90
        0
280
     0
281
     0
  0
ENDSEC
  0
SECTION
  2
TABLES
  0
TABLE
  2
VPORT
  5
8
330
0
100
AcDbSymbolTable
 70
     1
  0
VPORT
  5
29
330
8
100
AcDbSymbolTableRecord
100
AcDbViewportTableRecord
  2
*Active
 70
     0
 10
0.0
 20
0.0
 11
1.0
 21
1.0
 12
139.7
 22
107.95
 13
0.0
 23
0.0
 14
10.0
 24
10.0
 15
10.0
 25
10.0
 16
0.0
 26
0.0
 36
1.0
 17
0.0
 27
0.0
 37
0.0
 40
215.9
 41
1.2941176471
 42
50.0
 43
0.0
 44
0.0
 50
0.0
 51
0.0
 71
     0
 72
  2000
 73
     1
 74
     3
 75
     0
 76
     0
 77
     0
 78
     0
281
     0
 65
     1
110
0.0
120
0.0
130
0.0
111
1.0
121
0.0
131
0.0
112
0.0
122
1.0
132
0.0
 79
     0
146
0.0
  0
ENDTAB
  0
TABLE
  2
LTYPE
  5
5
330
0
100
AcDbSymbolTable
 70
     6
  0
LTYPE
  5
14
330
5
100
AcDbSymbolTableRecord
100
AcDbLinetypeTableRecord
  2
ByBlock
 70
     0
  3

 72
    65
 73
     0
 40
0.0
  0
LTYPE
  5
15
330
5
100
AcDbSymbolTableRecord
100
AcDbLinetypeTableRecord
  2
ByLayer
 70
     0
  3

 72
    65
 73
     0
 40
0.0
  0
LTYPE
  5
16
330
5
100
AcDbSymbolTableRecord
100
AcDbLinetypeTableRecord
  2
Continuous
 70
     0
  3
Solid line
 72
    65
 73
     0
 40
0.0
  0
LTYPE
  5
6E
330
5
100
AcDbSymbolTableRecord
100
AcDbLinetypeTableRecord
  2
HIDDEN
 70
     0
  3
Hidden __ __ __ __ __ __ __ __ __ __ __ __ __ __
 72
    65
 73
     2
 40
1.905
 49
1.27
 74
     0
 49
-0.635
 74
     0
  0
LTYPE
  5
6F
330
5
100
AcDbSymbolTableRecord
100
AcDbLinetypeTableRecord
  2
PHANTOM
 70
     0
  3
Phantom ______  __  __  ______  __  __  ______
 72
    65
 73
     6
 40
12.7
 49
6.35
 74
     0
 49
-1.27
 74
     0
 49
1.27
 74
     0
 49
-1.27
 74
     0
 49
1.27
 74
     0
 49
-1.27
 74
     0
  0
LTYPE
  5
70
330
5
100
AcDbSymbolTableRecord
100
AcDbLinetypeTableRecord
  2
CENTER
 70
     0
  3
Center ____ _ ____ _ ____ _ ____ _ ____ _ ____
 72
    65
 73
     4
 40
10.16
 49
6.35
 74
     0
 49
-1.27
 74
     0
 49
1.27
 74
     0
 49
-1.27
 74
     0
  0
LTYPE
  5
71
330
5
100
AcDbSymbolTableRecord
100
AcDbLinetypeTableRecord
  2
CENTERX2
 70
     0
  3
Center (2x) ________  __  ________  __  _____
 72
    65
 73
     4
 40
20.32
 49
12.7
 74
     0
 49
-2.54
 74
     0
 49
2.54
 74
     0
 49
-2.54
 74
     0
  0
LTYPE
  5
72
330
5
100
AcDbSymbolTableRecord
100
AcDbLinetypeTableRecord
  2
DOT2
 70
     0
  3
Dot (.5x) ........................................
 72
    65
 73
     2
 40
0.635
 49
0.0
 74
     0
 49
-0.635
 74
     0
  0
ENDTAB
  0
TABLE
  2
LAYER
  5
2
330
0
100
AcDbSymbolTable
 70
    17
  0
LAYER
  5
10
330
2
100
AcDbSymbolTableRecord
100
AcDbLayerTableRecord
  2
0
 70
     0
 62
     7
  6
Continuous
370
    -3
390
F
  0
LAYER
  5
73
330
2
100
AcDbSymbolTableRecord
100
AcDbLayerTableRecord
  2
FORMAT
 70
     0
 62
     7
  6
Continuous
370
    -3
390
F
  0
LAYER
  5
74
330
2
100
AcDbSymbolTableRecord
100
AcDbLayerTableRecord
  2
YARDIMCI_GEOMETRI
 70
     0
 62
    -6
  6
Continuous
290
     0
370
    -3
390
F
  0
LAYER
  5
75
330
2
100
AcDbSymbolTableRecord
100
AcDbLayerTableRecord
  2
SAYFA_CERCEVESI
 70
     0
 62
     7
  6
Continuous
370
    25
390
F
  0
LAYER
  5
76
330
2
100
AcDbSymbolTableRecord
100
AcDbLayerTableRecord
  2
ANTET
 70
     0
 62
     7
  6
Continuous
370
    -3
390
F
  0
LAYER
  5
77
330
2
100
AcDbSymbolTableRecord
100
AcDbLayerTableRecord
  2
OLCU
 70
     0
 62
   150
  6
Continuous
370
    -3
390
F
  0
LAYER
  5
78
330
2
100
AcDbSymbolTableRecord
100
AcDbLayerTableRecord
  2
METIN
 70
     0
 62
    96
  6
Continuous
370
    -3
390
F
  0
LAYER
  5
79
330
2
100
AcDbSymbolTableRecord
100
AcDbLayerTableRecord
  2
BALON
 70
     0
 62
     5
  6
Continuous
370
    -3
390
F
  0
LAYER
  5
7A
330
2
100
AcDbSymbolTableRecord
100
AcDbLayerTableRecord
  2
VURGU
 70
     0
 62
     7
  6
Continuous
370
    -3
390
F
  0
LAYER
  5
7B
330
2
100
AcDbSymbolTableRecord
100
AcDbLayerTableRecord
  2
SILIK
 70
     0
 62
     7
  6
Continuous
370
    -3
390
F
  0
LAYER
  5
7C
330
2
100
AcDbSymbolTableRecord
100
AcDbLayerTableRecord
  2
MODEL
 70
     0
 62
     7
  6
Continuous
370
    -3
390
F
  0
LAYER
  5
7D
330
2
100
AcDbSymbolTableRecord
100
AcDbLayerTableRecord
  2
DETAYLANDıRMA
 70
     0
 62
   190
  6
Continuous
370
    -3
390
F
  0
LAYER
  5
7E
330
2
100
AcDbSymbolTableRecord
100
AcDbLayerTableRecord
  2
TOLERANS
 70
     0
 62
   230
  6
Continuous
370
    -3
390
F
  0
LAYER
  5
7F
330
2
100
AcDbSymbolTableRecord
100
AcDbLayerTableRecord
  2
MERKEZ_CIZGILERI
 70
     0
 62
    30
  6
Continuous
370
    -3
390
F
  0
LAYER
  5
80
330
2
100
AcDbSymbolTableRecord
100
AcDbLayerTableRecord
  2
KESIT-DETAY_CIZGILERI
 70
     0
 62
     7
  6
Continuous
370
    -3
390
F
  0
LAYER
  5
81
330
2
100
AcDbSymbolTableRecord
100
AcDbLayerTableRecord
  2
\U+041E\U+0421\U+0415\U+0412\U+042B\U+0415
 70
     0
 62
     7
  6
Continuous
370
    -3
390
F
  0
LAYER
  5
82
330
2
100
AcDbSymbolTableRecord
100
AcDbLayerTableRecord
  2
\U+0412\U+041E\U+0414\U+042F\U+041D\U+042B\U+0415_\U+0417\U+041D\U+0410\U+041A\U+0418
 70
     0
 62
    11
  6
Continuous
370
    -3
390
F
  0
ENDTAB
  0
TABLE
  2
STYLE
  5
3
330
0
100
AcDbSymbolTable
 70
     1
  0
STYLE
  5
11
330
3
100
AcDbSymbolTableRecord
100
AcDbTextStyleTableRecord
  2
Standard
 70
     0
 40
0.0
 41
1.0
 50
0.0
 71
     0
 42
3.5
  3
txt
  4

  0
ENDTAB
  0
TABLE
  2
VIEW
  5
6
330
0
100
AcDbSymbolTable
 70
     0
  0
ENDTAB
  0
TABLE
  2
UCS
  5
7
330
0
100
AcDbSymbolTable
 70
     0
  0
ENDTAB
  0
TABLE
  2
APPID
  5
9
330
0
100
AcDbSymbolTable
 70
     1
  0
APPID
  5
12
330
9
100
AcDbSymbolTableRecord
100
AcDbRegAppTableRecord
  2
ACAD
 70
     0
  0
ENDTAB
  0
TABLE
  2
DIMSTYLE
  5
A
330
0
100
AcDbSymbolTable
 70
     1
100
AcDbDimStyleTable
  0
DIMSTYLE
105
27
330
A
100
AcDbSymbolTableRecord
100
AcDbDimStyleTableRecord
  2
ISO-25
 70
     0
 41
2.5
 42
0.625
 43
3.75
 44
1.25
 73
     0
 74
     0
 77
     1
 78
     8
140
2.5
141
2.5
143
0.0393700787
147
0.625
171
     3
172
     1
178
     0
271
     2
272
     2
274
     3
278
    44
283
     0
284
     8
340
11
  0
ENDTAB
  0
TABLE
  2
BLOCK_RECORD
  5
1
330
0
100
AcDbSymbolTable
 70
     3
  0
BLOCK_RECORD
  5
1F
330
1
100
AcDbSymbolTableRecord
100
AcDbBlockTableRecord
  2
*Model_Space
340
22
  0
BLOCK_RECORD
  5
1B
330
1
100
AcDbSymbolTableRecord
100
AcDbBlockTableRecord
  2
*Paper_Space
340
1E
  0
BLOCK_RECORD
  5
23
330
1
100
AcDbSymbolTableRecord
100
AcDbBlockTableRecord
  2
*Paper_Space0
340
26
  0
BLOCK_RECORD
  5
8C
330
1
100
AcDbSymbolTableRecord
100
AcDbBlockTableRecord
  2
SW_CENTERMARKSYMBOL_0
340
0
102
{BLKREFS
331
97
102
}
  0
BLOCK_RECORD
  5
103
330
1
100
AcDbSymbolTableRecord
100
AcDbBlockTableRecord
  2
SW_CENTERMARKSYMBOL_1
340
0
102
{BLKREFS
331
10E
102
}
  0
ENDTAB
  0
ENDSEC
  0
SECTION
  2
BLOCKS
  0
BLOCK
  5
20
330
1F
100
AcDbEntity
  8
0
100
AcDbBlockBegin
  2
*Model_Space
 70
     0
 10
0.0
 20
0.0
 30
0.0
  3
*Model_Space
  1

  0
ENDBLK
  5
21
330
1F
100
AcDbEntity
  8
0
100
AcDbBlockEnd
  0
BLOCK
  5
1C
330
1B
100
AcDbEntity
 67
     1
  8
0
100
AcDbBlockBegin
  2
*Paper_Space
 70
     0
 10
0.0
 20
0.0
 30
0.0
  3
*Paper_Space
  1

  0
ENDBLK
  5
1D
330
1B
100
AcDbEntity
 67
     1
  8
0
100
AcDbBlockEnd
  0
BLOCK
  5
24
330
23
100
AcDbEntity
  8
0
100
AcDbBlockBegin
  2
*Paper_Space0
 70
     0
 10
0.0
 20
0.0
 30
0.0
  3
*Paper_Space0
  1

  0
ENDBLK
  5
25
330
23
100
AcDbEntity
  8
0
100
AcDbBlockEnd
  0
BLOCK
  5
8D
330
8C
100
AcDbEntity
  8
0
100
AcDbBlockBegin
  2
SW_CENTERMARKSYMBOL_0
 70
     0
 10
0.0
 20
0.0
 30
0.0
  3
SW_CENTERMARKSYMBOL_0
  1

  0
LINE
  5
8F
330
8C
100
AcDbEntity
  8
FORMAT
 62
     0
100
AcDbLine
 10
0.0
 20
0.0
 30
0.0
 11
0.0
 21
2.5
 31
0.0
  0
LINE
  5
90
330
8C
100
AcDbEntity
  8
FORMAT
 62
     0
100
AcDbLine
 10
0.0
 20
0.0
 30
0.0
 11
-2.5
 21
0.0
 31
0.0
  0
LINE
  5
91
330
8C
100
AcDbEntity
  8
FORMAT
 62
     0
100
AcDbLine
 10
0.0
 20
0.0
 30
0.0
 11
0.0
 21
-2.5
 31
0.0
  0
LINE
  5
92
330
8C
100
AcDbEntity
  8
FORMAT
 62
     0
100
AcDbLine
 10
0.0
 20
0.0
 30
0.0
 11
2.5
 21
0.0
 31
0.0
  0
LINE
  5
93
330
8C
100
AcDbEntity
  8
FORMAT
 62
     0
100
AcDbLine
 10
0.0
 20
5.0
 30
0.0
 11
0.0
 21
18.85
 31
0.0
  0
LINE
  5
94
330
8C
100
AcDbEntity
  8
FORMAT
 62
     0
100
AcDbLine
 10
-5.0
 20
0.0
 30
0.0
 11
-18.85
 21
0.0
 31
0.0
  0
LINE
  5
95
330
8C
100
AcDbEntity
  8
FORMAT
 62
     0
100
AcDbLine
 10
0.0
 20
-5.0
 30
0.0
 11
0.0
 21
-18.85
 31
0.0
  0
LINE
  5
96
330
8C
100
AcDbEntity
  8
FORMAT
 62
     0
100
AcDbLine
 10
5.0
 20
0.0
 30
0.0
 11
18.85
 21
0.0
 31
0.0
  0
ENDBLK
  5
8E
330
8C
100
AcDbEntity
  8
0
100
AcDbBlockEnd
  0
BLOCK
  5
104
330
103
100
AcDbEntity
  8
0
100
AcDbBlockBegin
  2
SW_CENTERMARKSYMBOL_1
 70
     0
 10
0.0
 20
0.0
 30
0.0
  3
SW_CENTERMARKSYMBOL_1
  1

  0
LINE
  5
106
330
103
100
AcDbEntity
  8
FORMAT
 62
     0
100
AcDbLine
 10
0.0
 20
0.0
 30
0.0
 11
0.0
 21
2.5
 31
0.0
  0
LINE
  5
107
330
103
100
AcDbEntity
  8
FORMAT
 62
     0
100
AcDbLine
 10
0.0
 20
0.0
 30
0.0
 11
-2.5
 21
0.0
 31
0.0
  0
LINE
  5
108
330
103
100
AcDbEntity
  8
FORMAT
 62
     0
100
AcDbLine
 10
0.0
 20
0.0
 30
0.0
 11
0.0
 21
-2.5
 31
0.0
  0
LINE
  5
109
330
103
100
AcDbEntity
  8
FORMAT
 62
     0
100
AcDbLine
 10
0.0
 20
0.0
 30
0.0
 11
2.5
 21
0.0
 31
0.0
  0
LINE
  5
10A
330
103
100
AcDbEntity
  8
FORMAT
 62
     0
100
AcDbLine
 10
0.0
 20
5.0
 30
0.0
 11
0.0
 21
7.25
 31
0.0
  0
LINE
  5
10B
330
103
100
AcDbEntity
  8
FORMAT
 62
     0
100
AcDbLine
 10
-5.0
 20
0.0
 30
0.0
 11
-7.25
 21
0.0
 31
0.0
  0
LINE
  5
10C
330
103
100
AcDbEntity
  8
FORMAT
 62
     0
100
AcDbLine
 10
0.0
 20
-5.0
 30
0.0
 11
0.0
 21
-7.25
 31
0.0
  0
LINE
  5
10D
330
103
100
AcDbEntity
  8
FORMAT
 62
     0
100
AcDbLine
 10
5.0
 20
0.0
 30
0.0
 11
7.25
 21
0.0
 31
0.0
  0
ENDBLK
  5
105
330
103
100
AcDbEntity
  8
0
100
AcDbBlockEnd
  0
ENDSEC
  0
SECTION
  2
ENTITIES
  0
LINE
  5
83
330
1F
100
AcDbEntity
  8
0
  6
Continuous
 62
     7
370
    25
100
AcDbLine
 10
144.6573330864
 20
152.1113573304
 30
0.0
 11
144.399234026
 21
166.8978425974
 31
0.0
  0
LINE
  5
84
330
1F
100
AcDbEntity
  8
0
  6
Continuous
 62
     7
370
    25
100
AcDbLine
 10
130.399234026
 20
166.8978425974
 30
0.0
 11
130.1410826322
 21
152.1083591554
 31
0.0
  0
LINE
  5
85
330
1F
100
AcDbEntity
  8
0
  6
Continuous
 62
     7
370
    25
100
AcDbLine
 10
130.1409662221
 20
122.793995174
 30
0.0
 11
130.399234026
 21
107.9978425974
 31
0.0
  0
LINE
  5
86
330
1F
100
AcDbEntity
  8
0
  6
Continuous
 62
     7
370
    25
100
AcDbLine
 10
144.399234026
 20
107.9978425974
 30
0.0
 11
144.6573681423
 21
122.7863362146
 31
0.0
  0
CIRCLE
  5
87
330
1F
100
AcDbEntity
  8
0
  6
Continuous
 62
     7
370
    25
100
AcDbCircle
 10
137.399234026
 20
137.4478425974
 30
0.0
 40
10.14999999999999
  0
CIRCLE
  5
88
330
1F
100
AcDbEntity
  8
0
  6
Continuous
 62
     7
370
    25
100
AcDbCircle
 10
137.399234026
 20
137.4478425974
 30
0.0
 40
15.35000000000001
  0
CIRCLE
  5
89
330
1F
100
AcDbEntity
  8
0
  6
Continuous
 62
     7
370
    25
100
AcDbCircle
 10
137.399234026
 20
137.4478425974
 30
0.0
 40
16.35000000000001
  0
LINE
  5
8A
330
1F
100
AcDbEntity
  8
0
  6
Continuous
 62
     7
370
    25
100
AcDbLine
 10
130.399234026
 20
166.8978425974
 30
0.0
 11
144.399234026
 21
166.8978425974
 31
0.0
  0
LINE
  5
8B
330
1F
100
AcDbEntity
  8
0
  6
Continuous
 62
     7
370
    25
100
AcDbLine
 10
130.399234026
 20
107.9978425974
 30
0.0
 11
144.399234026
 21
107.9978425974
 31
0.0
  0
INSERT
  5
97
330
1F
100
AcDbEntity
  8
FORMAT
 62
     7
100
AcDbBlockReference
  2
SW_CENTERMARKSYMBOL_0
 10
137.399234026
 20
137.4478425974
 30
0.0
  0
LINE
  5
98
330
1F
100
AcDbEntity
  8
0
  6
Continuous
 62
     7
370
    25
100
AcDbLine
 10
288.5843502781
 20
121.0978425974
 30
0.0
 11
290.1394937692
 21
121.0978425974
 31
0.0
  0
LINE
  5
99
330
1F
100
AcDbEntity
  8
0
  6
Continuous
 62
     7
370
    25
100
AcDbLine
 10
231.4829822871
 20
121.0978425974
 30
0.0
 11
274.1713772049
 21
121.0978425974
 31
0.0
  0
LINE
  5
9A
330
1F
100
AcDbEntity
  8
0
  6
Continuous
 62
     7
370
    25
100
AcDbLine
 10
274.1652413241
 20
153.7978425974
 30
0.0
 11
231.4829822871
 21
153.7978425974
 31
0.0
  0
LINE
  5
9B
330
1F
100
AcDbEntity
  8
0
  6
Continuous
 62
     7
370
    25
100
AcDbLine
 10
290.1394937692
 20
153.7978425974
 30
0.0
 11
288.6032191024
 21
153.7978425974
 31
0.0
  0
ARC
  5
9C
330
1F
100
AcDbEntity
  8
0
  6
Continuous
 62
     7
370
    25
100
AcDbCircle
 10
290.1394937692
 20
122.0978425974
 30
0.0
 40
1.0
100
AcDbArc
 50
270.0
 51
0.0
  0
ARC
  5
9D
330
1F
100
AcDbEntity
  8
0
  6
Continuous
 62
     7
370
    25
100
AcDbCircle
 10
290.1394937692
 20
152.7978425974
 30
0.0
 40
1.0
100
AcDbArc
 50
0.0
 51
90.0
  0
ARC
  5
9E
330
1F
100
AcDbEntity
  8
0
  6
Continuous
 62
     7
370
    25
100
AcDbCircle
 10
231.4829822871
 20
124.0978425974
 30
0.0
 40
3.000000000000022
100
AcDbArc
 50
191.4933226741
 51
270.0
  0
ARC
  5
9F
330
1F
100
AcDbEntity
  8
0
  6
Continuous
 62
     7
370
    25
100
AcDbCircle
 10
231.4829822871
 20
150.7978425974
 30
0.0
 40
3.000000000000022
100
AcDbArc
 50
90.0
 51
168.5066773259
  0
ARC
  5
A0
330
1F
100
AcDbEntity
  8
0
  6
Continuous
 62
     7
370
    25
100
AcDbCircle
 10
297.1394937692
 20
137.4478425974
 30
0.0
 40
70.00000000000007
100
AcDbArc
 50
168.5066773259
 51
191.4933226741
  0
LINE
  5
A1
330
1F
100
AcDbEntity
  8
0
  6
Continuous
 62
     7
370
    25
100
AcDbLine
 10
288.604593713
 20
153.7972654766
 30
0.0
 11
288.3759222888
 21
166.8978425974
 31
0.0
  0
LINE
  5
A2
330
1F
100
AcDbEntity
  8
0
  6
Continuous
 62
     7
370
    25
100
AcDbLine
 10
274.3759222888
 20
166.8978425974
 30
0.0
 11
274.1471270475
 21
153.790172005
 31
0.0
  0
LINE
  5
A3
330
1F
100
AcDbEntity
  8
0
  6
Continuous
 62
     7
370
    25
100
AcDbLine
 10
274.1472609382
 20
121.0978425974
 30
0.0
 11
274.3759222888
 21
107.9978425974
 31
0.0
  0
LINE
  5
A4
330
1F
100
AcDbEntity
  8
0
  6
Continuous
 62
     7
370
    25
100
AcDbLine
 10
288.3759222888
 20
107.9978425974
 30
0.0
 11
288.6047344786
 21
121.1064841699
 31
0.0
  0
SPLINE
  5
A5
330
1F
100
AcDbEntity
  8
0
  6
Continuous
 62
     7
370
    25
100
AcDbSpline
210
0.0
220
0.0
230
1.0
 70
     8
 71
     3
 72
    27
 73
    23
 74
     0
 42
0.00000001
 43
0.00000001
 40
0.0
 40
0.0
 40
0.0
 40
0.0
 40
0.0319391890861016
 40
0.0827455785553879
 40
0.1311266631020857
 40
0.1807585957403677
 40
0.2321706072751787
 40
0.2848930033394543
 40
0.339617417419499
 40
0.3960251611930614
 40
0.4487782965516339
 40
0.503411575879752
 40
0.5510534440736865
 40
0.6000984611141438
 40
0.6476777368242512
 40
0.6964114231906186
 40
0.7485582186820193
 40
0.8020584191077421
 40
0.8569396449382967
 40
0.9135830199940861
 40
0.9655045620655167
 40
1.0
 40
1.0
 40
1.0
 40
1.0
 10
288.5843502780649
 20
121.1068437420814
 30
0.0
 10
288.5850959012887
 20
121.1065207240562
 30
0.0
 10
288.5870276042156
 20
121.1056838739623
 30
0.0
 10
288.3856180217811
 20
121.1949524036247
 30
0.0
 10
288.0144456779921
 20
121.3537127057407
 30
0.0
 10
287.4790552582352
 20
121.570456255384
 30
0.0
 10
286.7810632206435
 20
121.8298018902344
 30
0.0
 10
285.9182639813442
 20
122.112321445421
 30
0.0
 10
284.8969779857342
 20
122.389268227806
 30
0.0
 10
283.7611855510839
 20
122.6181616297337
 30
0.0
 10
282.544140250111
 20
122.7674509795321
 30
0.0
 10
281.3502396442167
 20
122.8134482327616
 30
0.0
 10
280.1883809939071
 20
122.7626053795839
 30
0.0
 10
279.1148375531016
 20
122.6345387668702
 30
0.0
 10
278.0959898263047
 20
122.4416373542806
 30
0.0
 10
277.1399466459989
 20
122.2008566384101
 30
0.0
 10
276.2555987165146
 20
121.9279334348785
 30
0.0
 10
275.4747012513365
 20
121.6488278856661
 30
0.0
 10
274.8345992352365
 20
121.3947758161089
 30
0.0
 10
274.3987800405442
 20
121.2092798001871
 30
0.0
 10
274.1673921583053
 20
121.1068415869254
 30
0.0
 10
274.17024029992
 20
121.1080756808132
 30
0.0
 10
274.1713772048695
 20
121.1085682993833
 30
0.0
  0
SPLINE
  5
A6
330
1F
100
AcDbEntity
  8
0
  6
Continuous
 62
     7
370
    25
100
AcDbSpline
210
0.0
220
0.0
230
1.0
 70
     8
 71
     3
 72
    28
 73
    24
 74
     0
 42
0.00000001
 43
0.00000001
 40
0.0
 40
0.0
 40
0.0
 40
0.0
 40
0.0135766472571453
 40
0.0650304278041307
 40
0.1132280038024018
 40
0.1626993185115812
 40
0.2133823951285322
 40
0.2653408517356778
 40
0.3197070783543048
 40
0.3756730459722831
 40
0.4292626422903398
 40
0.4570440729103324
 40
0.4848240024846213
 40
0.5331747901909765
 40
0.5830218705429813
 40
0.6301268806320316
 40
0.6783950094496578
 40
0.7296271076617797
 40
0.7821487041698155
 40
0.8369610971873018
 40
0.8934735575233338
 40
0.9461915498567363
 40
1.0
 40
1.0
 40
1.0
 40
1.0
 10
274.1652413241463
 20
153.7898476765473
 30
0.0
 10
274.1599464189557
 20
153.7922018212213
 30
0.0
 10
274.1345844909919
 20
153.803477877258
 30
0.0
 10
274.2749006443334
 20
153.7409110311656
 30
0.0
 10
274.5818721024885
 20
153.6077000867786
 30
0.0
 10
275.0598591773269
 20
153.4095797820858
 30
0.0
 10
275.6981230517186
 20
153.1640423432413
 30
0.0
 10
276.5016368041865
 20
152.886924764394
 30
0.0
 10
277.4677376345483
 20
152.6037219734863
 30
0.0
 10
278.5652705162305
 20
152.3533946135585
 30
0.0
 10
279.5645348520955
 20
152.2011320879289
 30
0.0
 10
280.3869650143699
 20
152.1275942630547
 30
0.0
 10
281.1818056074925
 20
152.090581826582
 30
0.0
 10
282.1539750352866
 20
152.104612086637
 30
0.0
 10
283.251598229515
 20
152.2060958886995
 30
0.0
 10
284.2946176689724
 20
152.3780947906699
 30
0.0
 10
285.2717929508216
 20
152.6025159470941
 30
0.0
 10
286.1843317168018
 20
152.8661918576285
 30
0.0
 10
287.0081723252267
 20
153.146811610265
 30
0.0
 10
287.7055746820293
 20
153.4144044637117
 30
0.0
 10
288.2174312469351
 20
153.6276427590205
 30
0.0
 10
288.544042323626
 20
153.7707055215675
 30
0.0
 10
288.583359353242
 20
153.7883337781822
 30
0.0
 10
288.603219102415
 20
153.7972381323042
 30
0.0
  0
LINE
  5
A7
330
1F
100
AcDbEntity
  8
0
  6
Continuous
 62
     7
370
    25
100
AcDbLine
 10
291.1394937692
 20
137.4478425974
 30
0.0
 11
291.1394937692
 21
152.7978425974
 31
0.0
  0
LINE
  5
A8
330
1F
100
AcDbEntity
  8
0
  6
Continuous
 62
     7
370
    25
100
AcDbLine
 10
291.1394937692
 20
122.0978425974
 30
0.0
 11
291.1394937692
 21
137.4478425974
 31
0.0
  0
LINE
  5
A9
330
1F
100
AcDbEntity
  8
0
  6
Continuous
 62
     7
370
    25
100
AcDbLine
 10
274.3759222888
 20
166.8978425974
 30
0.0
 11
288.3759222888
 21
166.8978425974
 31
0.0
  0
LINE
  5
AA
330
1F
100
AcDbEntity
  8
0
  6
Continuous
 62
     7
370
    25
100
AcDbLine
 10
274.3759222888
 20
107.9978425974
 30
0.0
 11
288.3759222888
 21
107.9978425974
 31
0.0
  0
LINE
  5
AB
330
1F
100
AcDbEntity
  8
0
  6
Continuous
 62
     1
370
    25
100
AcDbLine
 10
290.1394937692
 20
137.4478425974
 30
0.0
 11
290.1394937692
 21
153.7978425974
 31
0.0
  0
LINE
  5
AC
330
1F
100
AcDbEntity
  8
0
  6
Continuous
 62
     1
370
    25
100
AcDbLine
 10
290.1394937692
 20
121.0978425974
 30
0.0
 11
290.1394937692
 21
137.4478425974
 31
0.0
  0
LINE
  5
AD
330
1F
100
AcDbEntity
  8
0
  6
Continuous
 62
     1
370
    25
100
AcDbLine
 10
231.4829822871
 20
137.4478425974
 30
0.0
 11
231.4829822871
 21
153.7978425974
 31
0.0
  0
LINE
  5
AE
330
1F
100
AcDbEntity
  8
0
  6
Continuous
 62
     1
370
    25
100
AcDbLine
 10
231.4829822871
 20
121.0978425974
 30
0.0
 11
231.4829822871
 21
137.4478425974
 31
0.0
  0
LINE
  5
AF
330
1F
100
AcDbEntity
  8
0
  6
Continuous
 62
     1
370
    25
100
AcDbLine
 10
228.5431384894
 20
137.4478425974
 30
0.0
 11
228.5431384894
 21
151.3956037914
 31
0.0
  0
LINE
  5
B0
330
1F
100
AcDbEntity
  8
0
  6
Continuous
 62
     1
370
    25
100
AcDbLine
 10
228.5431384894
 20
123.5000814034
 30
0.0
 11
228.5431384894
 21
137.4478425974
 31
0.0
  0
LINE
  5
B1
330
1F
100
AcDbEntity
  8
0
  6
Continuous
 62
     7
370
    25
100
AcDbLine
 10
238.3629895924
 20
252.2066691699
 30
0.0
 11
238.1203375428
 21
263.5569686272
 31
0.0
  0
LINE
  5
B2
330
1F
100
AcDbEntity
  8
0
  6
Continuous
 62
     7
370
    25
100
AcDbLine
 10
224.1214036143
 20
263.5569686272
 30
0.0
 11
223.878025115
 21
252.1726887387
 31
0.0
  0
SPLINE
  5
B3
330
1F
100
AcDbEntity
  8
0
  6
Continuous
 62
     7
370
    25
100
AcDbSpline
210
0.0
220
0.0
230
1.0
 70
     8
 71
     3
 72
    21
 73
    17
 74
     0
 42
0.00000001
 43
0.00000001
 40
0.0
 40
0.0
 40
0.0
 40
0.0
 40
0.0349157330300977
 40
0.1070766570348573
 40
0.1792848776236272
 40
0.2517413747366431
 40
0.3246158518893392
 40
0.3980296962446523
 40
0.4720461493582258
 40
0.5466693196280432
 40
0.6218521496724395
 40
0.6975112251443242
 40
0.7735444816146156
 40
0.8498475208379315
 40
0.9263255424353389
 40
1.0
 40
1.0
 40
1.0
 40
1.0
 10
216.7158539521184
 20
250.0145267562847
 30
0.0
 10
216.6328080011275
 20
249.9674901150293
 30
0.0
 10
216.3781296071577
 20
249.8232420678973
 30
0.0
 10
215.9836179343871
 20
249.5289505458844
 30
0.0
 10
215.5334773140735
 20
249.136524920847
 30
0.0
 10
215.1184572281442
 20
248.6958334553297
 30
0.0
 10
214.7376611928908
 20
248.211347322181
 30
0.0
 10
214.3928071000973
 20
247.6832557793605
 30
0.0
 10
214.0850244231917
 20
247.1131021093209
 30
0.0
 10
213.8156703062606
 20
246.5024196610711
 30
0.0
 10
213.5859756285796
 20
245.8532175189384
 30
0.0
 10
213.3971255226186
 20
245.1678172730703
 30
0.0
 10
213.2497321709755
 20
244.4490367138213
 30
0.0
 10
213.1454176255712
 20
243.6992916294811
 30
0.0
 10
213.0815419691294
 20
242.9333010635694
 30
0.0
 10
213.0737995799075
 20
242.4068773640937
 30
0.0
 10
213.0700006661009
 20
242.1485800604162
 30
0.0
  0
SPLINE
  5
B4
330
1F
100
AcDbEntity
  8
0
  6
Continuous
 62
     7
370
    25
100
AcDbSpline
210
0.0
220
0.0
230
1.0
 70
     8
 71
     3
 72
    47
 73
    43
 74
     0
 42
0.00000001
 43
0.00000001
 40
0.0
 40
0.0
 40
0.0
 40
0.0
 40
0.0136470499422211
 40
0.0393894140788832
 40
0.0651165277021417
 40
0.0908266465777287
 40
0.1165164721322945
 40
0.1421849203695997
 40
0.1678324602069931
 40
0.1934606186504701
 40
0.219071624408218
 40
0.2446681594216592
 40
0.2702531909118487
 40
0.2958298615509553
 40
0.3214014203236196
 40
0.3469711807592191
 40
0.3725423912135251
 40
0.398117413278006
 40
0.4236996390115833
 40
0.449292458566517
 40
0.4748992328322166
 40
0.5005232473689012
 40
0.5261676362347437
 40
0.551835261127951
 40
0.5775285265965382
 40
0.6032491064118527
 40
0.6289975503480424
 40
0.654772736604338
 40
0.680571137316562
 40
0.7063858811587015
 40
0.7322026782978938
 40
0.7580005553376472
 40
0.7837537473303674
 40
0.8094298003375866
 40
0.8349911382970584
 40
0.8603986659190584
 40
0.8856174160904859
 40
0.9106233757670384
 40
0.935409798193495
 40
0.9599911143680888
 40
0.9844032338535003
 40
1.0
 40
1.0
 40
1.0
 40
1.0
 10
213.0700006661009
 20
242.1485800604162
 30
0.0
 10
213.0712036636307
 20
242.0045671579405
 30
0.0
 10
213.0746758695681
 20
241.5889034157886
 30
0.0
 10
213.1129872843456
 20
240.8864048933435
 30
0.0
 10
213.1982074698266
 20
240.0379384435468
 30
0.0
 10
213.3253869497104
 20
239.1755790037811
 30
0.0
 10
213.4931077865935
 20
238.3026327713581
 30
0.0
 10
213.7007695435929
 20
237.4219680832292
 30
0.0
 10
213.9474191491358
 20
236.5365785067397
 30
0.0
 10
214.2320700380322
 20
235.6494221906527
 30
0.0
 10
214.5536193526418
 20
234.7634645377868
 30
0.0
 10
214.9108720354967
 20
233.881662986497
 30
0.0
 10
215.3025364725156
 20
233.0069645029192
 30
0.0
 10
215.7272284082225
 20
232.1422976074446
 30
0.0
 10
216.1834735693521
 20
231.2905644572715
 30
0.0
 10
216.6697109981776
 20
230.4546332218379
 30
0.0
 10
217.1842913995784
 20
229.6373387448618
 30
0.0
 10
217.7254878815289
 20
228.8414615537645
 30
0.0
 10
218.2915033233168
 20
228.0697178026517
 30
0.0
 10
218.8804849257265
 20
227.3247429138601
 30
0.0
 10
219.4905244556086
 20
226.6090954690751
 30
0.0
 10
220.119665395723
 20
225.9252513807564
 30
0.0
 10
220.7659098446559
 20
225.2755993830422
 30
0.0
 10
221.4272246782668
 20
224.6624380543634
 30
0.0
 10
222.1015463109568
 20
224.087974512417
 30
0.0
 10
222.786783170829
 20
223.5543247873779
 30
0.0
 10
223.4808147476964
 20
223.0635156205537
 30
0.0
 10
224.181485838539
 20
222.6174869853733
 30
0.0
 10
224.886594513727
 20
222.2180939010535
 30
0.0
 10
225.5938455451679
 20
221.8671184887172
 30
0.0
 10
226.3008135695819
 20
221.5662551258104
 30
0.0
 10
227.0049281699238
 20
221.3170687863967
 30
0.0
 10
227.7034724422871
 20
221.1209415368675
 30
0.0
 10
228.3935778388873
 20
220.9790142046211
 30
0.0
 10
229.0722286512644
 20
220.8921081581172
 30
0.0
 10
229.7363087490617
 20
220.8606669643455
 30
0.0
 10
230.3827517898025
 20
220.8846111807024
 30
0.0
 10
231.0084906643392
 20
220.9636396942835
 30
0.0
 10
231.6112410471573
 20
221.0961196507754
 30
0.0
 10
232.1871598666866
 20
221.2834673202604
 30
0.0
 10
232.6742259870063
 20
221.4870963043342
 30
0.0
 10
232.956607113112
 20
221.6490283382739
 30
0.0
 10
233.0666884692532
 20
221.7121547169544
 30
0.0
  0
LINE
  5
B5
330
1F
100
AcDbEntity
  8
0
  6
Continuous
 62
     7
370
    25
100
AcDbLine
 10
258.2261711478
 20
273.9863725947
 30
0.0
 11
238.1452026796
 21
262.3938762512
 31
0.0
  0
LINE
  5
B6
330
1F
100
AcDbEntity
  8
0
  6
Continuous
 62
     7
370
    25
100
AcDbLine
 10
223.9209899478
 20
254.1824130271
 30
0.0
 11
216.749754118
 21
250.0425467021
 31
0.0
  0
LINE
  5
B7
330
1F
100
AcDbEntity
  8
0
  6
Continuous
 62
     7
370
    25
100
AcDbLine
 10
233.0984253966
 20
221.7227489023
 30
0.0
 11
274.5748424264
 21
245.6665747949
 31
0.0
  0
LINE
  5
B8
330
1F
100
AcDbEntity
  8
0
  6
Continuous
 62
     7
370
    25
100
AcDbLine
 10
223.9631665393
 20
222.7646799274
 30
0.0
 11
224.1214036143
 21
215.3629778223
 31
0.0
  0
LINE
  5
B9
330
1F
100
AcDbEntity
  8
0
  6
Continuous
 62
     7
370
    25
100
AcDbLine
 10
238.1203375428
 20
215.3629778223
 30
0.0
 11
238.3207512093
 21
224.7375334224
 31
0.0
  0
SPLINE
  5
BA
330
1F
100
AcDbEntity
  8
0
  6
Continuous
 62
     7
370
    25
100
AcDbSpline
210
0.0
220
0.0
230
1.0
 70
     8
 71
     3
 72
    60
 73
    56
 74
     0
 42
0.00000001
 43
0.00000001
 40
0.0
 40
0.0
 40
0.0
 40
0.0
 40
0.0062600293655237
 40
0.0235328032405686
 40
0.0407933158027729
 40
0.0581067684041377
 40
0.0755390203248351
 40
0.0931508798154433
 40
0.1109951727552029
 40
0.1291132015634421
 40
0.1475309265544666
 40
0.1662556516773681
 40
0.18527437812271
 40
0.2045549726523981
 40
0.2240506036524122
 40
0.243706667533244
 40
0.2634683573189672
 40
0.283286863946646
 40
0.3031183777047507
 40
0.3229320578242802
 40
0.3427123314059436
 40
0.3624511243565905
 40
0.3821459642205331
 40
0.4017983450689808
 40
0.421412458613902
 40
0.4409942722726781
 40
0.4605508913581995
 40
0.4800901352469635
 40
0.4996202651973396
 40
0.5191498131256472
 40
0.5386860882810455
 40
0.5582363500437556
 40
0.5778093934090323
 40
0.5974139265872767
 40
0.6170584086890682
 40
0.6367507892977764
 40
0.6564980960172642
 40
0.6763058015715386
 40
0.6961768877834412
 40
0.7161105195557244
 40
0.7361002673726074
 40
0.7561319059735505
 40
0.7761752160081198
 40
0.7961843306002712
 40
0.8161059813511686
 40
0.8358776215035616
 40
0.8554340823604092
 40
0.8747168185152437
 40
0.8936831709512496
 40
0.912312713576149
 40
0.9306090752803688
 40
0.9485976744464837
 40
0.9663211242242787
 40
0.9838341442589449
 40
1.0
 40
1.0
 40
1.0
 40
1.0
 10
274.5682080140029
 20
245.6704173692476
 30
0.0
 10
274.6373993723659
 20
245.7082716526382
 30
0.0
 10
274.8975046414039
 20
245.8505740845966
 30
0.0
 10
275.3181851598098
 20
246.1481840638816
 30
0.0
 10
275.8262866553497
 20
246.5599125999016
 30
0.0
 10
276.2973776616513
 20
247.0189492344066
 30
0.0
 10
276.7328434669106
 20
247.5197295200736
 30
0.0
 10
277.1310542472852
 20
248.0623099175764
 30
0.0
 10
277.4911298068407
 20
248.6454665056312
 30
0.0
 10
277.8118439485912
 20
249.2683999367926
 30
0.0
 10
278.0918928333401
 20
249.9300523912039
 30
0.0
 10
278.3298555785969
 20
250.6290367050307
 30
0.0
 10
278.5243130936403
 20
251.3634164788238
 30
0.0
 10
278.6739851729506
 20
252.1306142727295
 30
0.0
 10
278.7778847549042
 20
252.9274273117647
 30
0.0
 10
278.8354355013376
 20
253.7501675980193
 30
0.0
 10
278.8465225745724
 20
254.5948773992796
 30
0.0
 10
278.8114728256038
 20
255.4574857161093
 30
0.0
 10
278.7309958254907
 20
256.3340090976821
 30
0.0
 10
278.606084993652
 20
257.2207279507759
 30
0.0
 10
278.4378977088817
 20
258.1142779780438
 30
0.0
 10
278.2276712754014
 20
259.0115875555164
 30
0.0
 10
277.9766936922318
 20
259.9097425472736
 30
0.0
 10
277.686284546102
 20
260.8059400993033
 30
0.0
 10
277.3577876727137
 20
261.6974515250511
 30
0.0
 10
276.9925701949804
 20
262.5815961741376
 30
0.0
 10
276.5920241560013
 20
263.4557252450031
 30
0.0
 10
276.1575683901772
 20
264.3172134299264
 30
0.0
 10
275.6906493396737
 20
265.1634561113089
 30
0.0
 10
275.1927519819661
 20
265.9918505097029
 30
0.0
 10
274.6654022497472
 20
266.7997990122196
 30
0.0
 10
274.1101517045693
 20
267.5847367876588
 30
0.0
 10
273.5285563500298
 20
268.3441524828124
 30
0.0
 10
272.922165523053
 20
269.0755869898699
 30
0.0
 10
272.292530636562
 20
269.7766091817481
 30
0.0
 10
271.6412027447236
 20
270.4448085576726
 30
0.0
 10
270.9697349592631
 20
271.0777831226347
 30
0.0
 10
270.2796930199738
 20
271.6731221771581
 30
0.0
 10
269.5726783120887
 20
272.2283846791335
 30
0.0
 10
268.8503683727801
 20
272.7410756717617
 30
0.0
 10
268.1145796924033
 20
273.2086263351482
 30
0.0
 10
267.3674270814881
 20
273.6283471817179
 30
0.0
 10
266.6114784587337
 20
273.9974563775598
 30
0.0
 10
265.8497992681783
 20
274.3132253758532
 30
0.0
 10
265.0859338610305
 20
274.5731593771753
 30
0.0
 10
264.3238249906385
 20
274.7751913550582
 30
0.0
 10
263.5677313271471
 20
274.9178541177614
 30
0.0
 10
262.8219894274808
 20
275.0004357998786
 30
0.0
 10
262.0907580080794
 20
275.0230124331937
 30
0.0
 10
261.3777762973169
 20
274.9864253777505
 30
0.0
 10
260.6863611499519
 20
274.8919357573923
 30
0.0
 10
260.0190229834621
 20
274.7417033770741
 30
0.0
 10
259.3789324302647
 20
274.5361680628479
 30
0.0
 10
258.7789041237632
 20
274.2886253148789
 30
0.0
 10
258.4071016904033
 20
274.0839134886112
 30
0.0
 10
258.2286365735183
 20
273.9856518401532
 30
0.0
  0
LINE
  5
BB
330
1F
100
AcDbEntity
  8
0
  6
Continuous
 62
     7
370
    25
100
AcDbLine
 10
238.3639412961
 20
252.1046351944
 30
0.0
 11
238.353284024
 21
252.2061032358
 31
0.0
  0
LWPOLYLINE
  5
BC
330
1F
100
AcDbEntity
  8
0
  6
Continuous
 62
     7
370
    25
100
AcDbPolyline
 90
       23
 70
   128
 43
0.0
 10
223.8989945569
 20
252.1725909308
 10
223.9154987828
 20
251.8634260189
 10
224.1453539042
 20
251.3779522634
 10
224.5984200962
 20
250.8622467493
 10
225.2110368163
 20
250.3684618985
 10
226.0207693944
 20
249.8531114426
 10
226.8759851767
 20
249.3999170937
 10
227.8580792765
 20
248.9571925854
 10
228.880792719
 20
248.5678714408
 10
229.9756561439
 20
248.2267567831
 10
231.1423996715
 20
247.9530503155
 10
232.3384533826
 20
247.7819909972
 10
233.5370455058
 20
247.7468741756
 10
234.1341858029
 20
247.7926314794
 10
234.7103988972
 20
247.8856165702
 10
235.6930852507
 20
248.1846407256
 10
236.5832160452
 20
248.6701415637
 10
237.2327896737
 20
249.2320000452
 10
237.754199816
 20
249.9181016786
 10
238.1161581288
 20
250.68008593
 10
238.3210764334
 20
251.5109044296
 10
238.3639412961
 20
252.1046351944
 10
238.3639412961
 20
252.1046351944
  0
LWPOLYLINE
  5
BD
330
1F
100
AcDbEntity
  8
0
  6
Continuous
 62
     7
370
    25
100
AcDbPolyline
 90
       66
 70
   128
 43
0.0
 10
236.0706180468
 20
266.3645285262
 10
235.5697912819
 20
266.6269706245
 10
235.027426143
 20
266.8602833326
 10
234.4485865475
 20
267.0622882727
 10
233.8386769645
 20
267.231099379
 10
233.2033919555
 20
267.3651405077
 10
232.5486630056
 20
267.463160153
 10
231.8806031425
 20
267.5242431318
 10
231.2054498611
 20
267.5478191288
 10
230.5295068857
 20
267.5336680213
 10
229.8590853138
 20
267.4819219343
 10
229.200444691
 20
267.3930640071
 10
228.5597345672
 20
267.2679238823
 10
227.9429370804
 20
267.1076699594
 10
227.3558111023
 20
266.9137984862
 10
226.8038384701
 20
266.6881195884
 10
226.2921728036
 20
266.432740369
 10
225.8255913872
 20
266.150045235
 10
225.4084505658
 20
265.8426736347
 10
225.044645071
 20
265.513495414
 10
224.7375716566
 20
265.1655840211
 10
224.4900973843
 20
264.802187811
 10
224.3045328548
 20
264.4266997162
 10
224.1826106341
 20
264.0426255679
 10
224.125469077
 20
263.653551363
 10
224.133641699
 20
263.2631097823
 10
224.2070521944
 20
262.8749462739
 10
224.3450151492
 20
262.4926850157
 10
224.5462424405
 20
262.1198950782
 10
224.8088552633
 20
261.7600571005
 10
225.1304016724
 20
261.4165307929
 10
225.5078794757
 20
261.092523568
 10
225.9377642645
 20
260.791060594
 10
226.4160423205
 20
260.5149565493
 10
226.9382480903
 20
260.2667893431
 10
227.4995058793
 20
260.0488760457
 10
228.0945753748
 20
259.8632512548
 10
228.7179005732
 20
259.7116480992
 10
229.3636616551
 20
259.5954820566
 10
230.0258293232
 20
259.515837738
 10
230.6982210966
 20
259.4734587611
 10
231.3745590342
 20
259.4687408069
 10
232.0485283511
 20
259.5017279256
 10
232.7138363774
 20
259.5721121255
 10
233.3642713111
 20
259.6792362481
 10
233.9937602167
 20
259.8221001046
 10
234.5964257258
 20
259.9993698134
 10
235.1666409129
 20
260.2093902552
 10
235.6990818325
 20
260.4502005256
 10
236.1887772271
 20
260.7195522439
 10
236.6311549428
 20
261.0149305459
 10
237.0220846181
 20
261.3335775639
 10
237.3579162478
 20
261.6725181765
 10
237.6355142627
 20
262.0285877865
 10
237.8522868047
 20
262.3984618679
 10
238.0062099272
 20
262.7786870062
 10
238.0958464912
 20
263.1657131416
 10
238.1203595845
 20
263.5559267153
 10
238.0795203349
 20
263.9456844084
 10
237.9737100473
 20
264.3313471583
 10
237.8039166441
 20
264.7093141359
 10
237.5717254404
 20
265.0760563652
 10
237.2793043429
 20
265.428149673
 10
236.9293836087
 20
265.7623066588
 10
236.5252303533
 20
266.0754073889
 10
236.0706180468
 20
266.3645285262
  0
LWPOLYLINE
  5
BE
330
1F
100
AcDbEntity
  8
0
  6
Continuous
 62
     7
370
    25
100
AcDbPolyline
 90
       55
 70
   128
 43
0.0
 10
234.4796277892
 20
265.4460694004
 10
234.0669891621
 20
265.6580593763
 10
233.6145093351
 20
265.8409613184
 10
233.1283073218
 20
265.9923017917
 10
232.6149581702
 20
266.1100341759
 10
232.0814040471
 20
266.1925663425
 10
231.5348603566
 20
266.2387821855
 10
230.9827181645
 20
266.248056715
 10
230.4324442468
 20
266.2202645087
 10
229.8914801143
 20
266.1557814087
 10
229.3671413788
 20
266.0554794383
 10
228.8665188222
 20
265.9207150094
 10
228.3963825059
 20
265.7533105799
 10
227.9630902169
 20
265.5555300075
 10
227.5725014901
 20
265.330047935
 10
227.2298983682
 20
265.0799136209
 10
226.9399139704
 20
264.8085097024
 10
226.7064698385
 20
264.5195064521
 10
226.5327229037
 20
264.2168121431
 10
226.4210227953
 20
263.9045201968
 10
226.3728800656
 20
263.5868538258
 10
226.3889457626
 20
263.268108923
 10
226.4690026251
 20
262.9525959663
 10
226.6119680216
 20
262.6445817273
 10
226.8159085901
 20
262.3482315701
 10
227.0780663845
 20
262.0675531222
 10
227.3948961702
 20
261.8063420782
 10
227.7621133679
 20
261.5681308692
 10
228.174751995
 20
261.3561408933
 10
228.6272318219
 20
261.1732389512
 10
229.1134338353
 20
261.0218984779
 10
229.6267829868
 20
260.9041660937
 10
230.16033711
 20
260.8216339271
 10
230.7068808005
 20
260.775418084
 10
231.2590229926
 20
260.7661435546
 10
231.8092969102
 20
260.7939357608
 10
232.3502610428
 20
260.8584188608
 10
232.8745997783
 20
260.9587208313
 10
233.3752223348
 20
261.0934852602
 10
233.8453586512
 20
261.2608896897
 10
234.2786509402
 20
261.4586702621
 10
234.6692396669
 20
261.6841523345
 10
235.0118427889
 20
261.9342866487
 10
235.3018271866
 20
262.2056905672
 10
235.5352713186
 20
262.4946938175
 10
235.7090182534
 20
262.7973881264
 10
235.8207183618
 20
263.1096800728
 10
235.8688610914
 20
263.4273464438
 10
235.8527953945
 20
263.7460913466
 10
235.7727385319
 20
264.0616043032
 10
235.6297731355
 20
264.3696185423
 10
235.425832567
 20
264.6659686995
 10
235.1636747726
 20
264.9466471473
 10
234.8468449869
 20
265.2078581914
 10
234.4796277892
 20
265.4460694004
  0
LWPOLYLINE
  5
BF
330
1F
100
AcDbEntity
  8
0
  6
Continuous
 62
     7
370
    25
100
AcDbPolyline
 90
       98
 70
   128
 43
0.0
 10
213.3628938849
 20
241.7403760045
 10
213.3856567958
 20
242.538552421
 10
213.4538500528
 20
243.3070995107
 10
213.5671876297
 20
244.0427937201
 10
213.7251941494
 20
244.742549292
 10
213.9272068776
 20
245.4034312084
 10
214.1723785027
 20
246.0226675007
 10
214.4596806897
 20
246.5976608769
 10
214.7879083934
 20
247.1259996148
 10
215.1556849127
 20
247.6054676783
 10
215.5614676651
 20
248.0340540115
 10
216.0035546568
 20
248.4099609745
 10
216.4800916212
 20
248.7316118828
 10
216.9890797967
 20
248.9976576208
 10
217.52838431
 20
249.2069823002
 10
218.0957431305
 20
249.3587079404
 10
218.6887765583
 20
249.4521981515
 10
219.3049972049
 20
249.487060803
 10
219.9418204269
 20
249.4631496688
 10
220.5965751664
 20
249.3805650406
 10
221.2665151544
 20
249.239653307
 10
221.9488304298
 20
249.0410055007
 10
222.6406591252
 20
248.7854548197
 10
223.3390994707
 20
248.4740731323
 10
224.0412219647
 20
248.1081664817
 10
224.7440816614
 20
247.6892696073
 10
225.4447305231
 20
247.2191395083
 10
226.1402297849
 20
246.6997480738
 10
226.8276622812
 20
246.1332738118
 10
227.5041446812
 20
245.5220927123
 10
228.1668395827
 20
244.8687682812
 10
228.8129674128
 20
244.1760407883
 10
229.4398180871
 20
243.4468157734
 10
230.0447623758
 20
242.6841518595
 10
230.6252629324
 20
241.8912479244
 10
231.1788849358
 20
241.0714296824
 10
231.703306303
 20
240.2281357364
 10
232.1963274285
 20
239.3649031542
 10
232.6558804103
 20
238.4853526332
 10
233.0800377236
 20
237.5931733139
 10
233.4670203051
 20
236.6921073065
 10
233.8152050155
 20
235.785933995
 10
234.123131447
 20
234.8784541851
 10
234.3895080491
 20
233.9734741626
 10
234.613217546
 20
233.0747897281
 10
234.7933216221
 20
232.1861702765
 10
234.9290648583
 20
231.3113429866
 10
235.0198779005
 20
230.4539771881
 10
235.065379847
 20
229.617668971
 10
235.065379847
 20
228.8059261027
 10
235.0198779005
 20
228.0221533149
 10
234.9290648583
 20
227.269638023
 10
234.7933216221
 20
226.5515365377
 10
234.613217546
 20
225.8708608262
 10
234.3895080491
 20
225.2304658789
 10
234.123131447
 20
224.6330377348
 10
233.8152050155
 20
224.0810822152
 10
233.4670203051
 20
223.5769144133
 10
233.0800377236
 20
223.1226489841
 10
232.6558804103
 20
222.7201912747
 10
232.1963274285
 20
222.3712293326
 10
231.703306303
 20
222.0772268255
 10
231.1788849358
 20
221.8394169019
 10
230.6252629324
 20
221.6587970195
 10
230.0447623758
 20
221.5361247607
 10
229.4398180871
 20
221.4719146556
 10
228.8129674128
 20
221.4664360237
 10
228.1668395827
 20
221.5197118444
 10
227.5041446812
 20
221.6315186603
 10
226.8276622812
 20
221.8013875148
 10
226.1402297849
 20
222.0286059188
 10
225.4447305231
 20
222.3122208394
 10
224.7440816614
 20
222.6510426971
 10
224.0412219647
 20
223.0436503552
 10
223.3390994707
 20
223.4883970808
 10
222.6406591252
 20
223.9834174516
 10
221.9488304298
 20
224.5266351801
 10
221.2665151544
 20
225.1157718223
 10
220.5965751664
 20
225.7483563345
 10
219.9418204269
 20
226.4217354373
 10
219.3049972049
 20
227.1330847448
 10
218.6887765583
 20
227.8794206109
 10
218.0957431305
 20
228.6576126433
 10
217.52838431
 20
229.4643968345
 10
216.9890797967
 20
230.296389251
 10
216.4800916212
 20
231.1501002276
 10
216.0035546568
 20
232.0219490037
 10
215.5614676651
 20
232.9082787426
 10
215.1556849127
 20
233.8053718694
 10
214.7879083934
 20
234.7094656636
 10
214.4596806897
 20
235.6167680418
 10
214.1723785027
 20
236.5234734624
 10
213.9272068776
 20
237.4257788878
 10
213.7251941494
 20
238.3198997354
 10
213.5671876297
 20
239.2020857518
 10
213.4538500528
 20
240.0686367422
 10
213.3856567958
 20
240.9159180906
 10
213.3628938849
 20
241.7403760045
  0
LINE
  5
C0
330
1F
100
AcDbEntity
  8
0
  6
Continuous
 62
     7
370
    25
100
AcDbLine
 10
216.7163184162
 20
250.0230861553
 30
0.0
 11
216.749754118
 21
250.0425467021
 31
0.0
  0
LINE
  5
C1
330
1F
100
AcDbEntity
  8
0
  6
Continuous
 62
     7
370
    25
100
AcDbLine
 10
233.0984253966
 20
221.7227489023
 30
0.0
 11
233.0730522284
 21
221.708191921
 31
0.0
  0
LWPOLYLINE
  5
C2
330
1F
100
AcDbEntity
  8
0
  6
Continuous
 62
     7
370
    25
100
AcDbPolyline
 90
       80
 70
   128
 43
0.0
 10
217.0398491471
 20
239.6177149138
 10
217.0625372225
 20
240.2630915506
 10
217.1304580076
 20
240.8781928142
 10
217.2431820851
 20
241.4591298364
 10
217.3999967772
 20
242.0022297462
 10
217.5999106509
 20
242.5040588912
 10
217.8416597864
 20
242.9614445459
 10
218.1237157678
 20
243.3714949709
 10
218.4442953463
 20
243.7316176955
 10
218.8013717146
 20
244.0395359078
 10
219.192687321
 20
244.2933028497
 10
219.6157681422
 20
244.491314125
 10
220.067939325
 20
244.6323178426
 10
220.5463420977
 20
244.7154225316
 10
221.0479518438
 20
244.7401027774
 10
221.5695972251
 20
244.7062025435
 10
222.1079802315
 20
244.6139361581
 10
222.6596970323
 20
244.4638869591
 10
223.2212594962
 20
244.2570036057
 10
223.7891172445
 20
243.9945940812
 10
224.3596800978
 20
243.678317423
 10
224.9293407739
 20
243.3101732341
 10
225.4944976947
 20
242.8924890404
 10
226.0515777561
 20
242.427905576
 10
226.5970589186
 20
241.9193600871
 10
227.1274924747
 20
241.370067762
 10
227.6395248526
 20
240.7835014037
 10
228.1299188188
 20
240.1633694735
 10
228.5955739448
 20
239.5135926451
 10
229.0335462089
 20
238.838279017
 10
229.4410666095
 20
238.1416981392
 10
229.8155586713
 20
237.4282540203
 10
230.154654735
 20
236.7024572838
 10
230.4562109261
 20
235.9688966504
 10
230.7183207092
 20
235.2322099265
 10
230.939326942
 20
234.4970546828
 10
231.1178323518
 20
233.7680788074
 10
231.2527083699
 20
233.0498911206
 10
231.3431022669
 20
232.3470322361
 10
231.3884425433
 20
231.6639458542
 10
231.3884425433
 20
231.0049506667
 10
231.3431022669
 20
230.3742130536
 10
231.2527083699
 20
229.775720741
 10
231.1178323518
 20
229.2132575901
 10
230.939326942
 20
228.690379674
 10
230.7183207092
 20
228.2103927952
 10
230.4562109261
 20
227.7763315853
 10
230.154654735
 20
227.3909403191
 10
229.8155586713
 20
227.0566555642
 10
229.4410666095
 20
226.7755907765
 10
229.0335462089
 20
226.549522938
 10
228.5955739448
 20
226.3798813224
 10
228.1299188188
 20
226.2677384587
 10
227.6395248526
 20
226.2138033501
 10
227.1274924747
 20
226.2184169917
 10
226.5970589186
 20
226.2815502146
 10
226.0515777561
 20
226.4028038703
 10
225.4944976947
 20
226.5814113541
 10
224.9293407739
 20
226.8162434519
 10
224.3596800978
 20
227.1058154797
 10
223.7891172445
 20
227.4482966698
 10
223.2212594962
 20
227.841521746
 10
222.6596970323
 20
228.2830046126
 10
222.1079802315
 20
228.7699540729
 10
221.5695972251
 20
229.2992914755
 10
221.0479518438
 20
229.867670179
 10
220.5463420977
 20
230.4714967101
 10
220.067939325
 20
231.1069534833
 10
219.6157681422
 20
231.7700229361
 10
219.192687321
 20
232.45651293
 10
218.8013717146
 20
233.1620832542
 10
218.4442953463
 20
233.8822730659
 10
218.1237157678
 20
234.6125290933
 10
217.8416597864
 20
235.3482344227
 10
217.5999106509
 20
236.084737688
 10
217.3999967772
 20
236.8173824785
 10
217.2431820851
 20
237.541536778
 10
217.1304580076
 20
238.2526222498
 10
217.0625372225
 20
238.9461431826
 10
217.0398491471
 20
239.6177149138
  0
LWPOLYLINE
  5
C3
330
1F
100
AcDbEntity
  8
0
  6
Continuous
 62
     7
370
    25
100
AcDbPolyline
 90
       34
 70
   128
 43
0.0
 10
224.1214036143
 20
215.3629778223
 10
224.133641699
 20
215.1688559623
 10
224.2070521944
 20
214.7806924538
 10
224.3450151492
 20
214.3984311956
 10
224.5462424405
 20
214.0256412581
 10
224.8088552633
 20
213.6658032804
 10
225.1304016724
 20
213.3222769729
 10
225.5078794757
 20
212.998269748
 10
225.9377642645
 20
212.6968067739
 10
226.4160423205
 20
212.4207027292
 10
226.9382480903
 20
212.172535523
 10
227.4995058793
 20
211.9546222256
 10
228.0945753748
 20
211.7689974347
 10
228.7179005732
 20
211.6173942791
 10
229.3636616551
 20
211.5012282365
 10
230.0258293232
 20
211.4215839179
 10
230.6982210966
 20
211.379204941
 10
231.3745590342
 20
211.3744869868
 10
232.0485283511
 20
211.4074741055
 10
232.7138363774
 20
211.4778583054
 10
233.3642713111
 20
211.5849824281
 10
233.9937602167
 20
211.7278462845
 10
234.5964257258
 20
211.9051159934
 10
235.1666409129
 20
212.1151364351
 10
235.6990818325
 20
212.3559467055
 10
236.1887772271
 20
212.6252984239
 10
236.6311549428
 20
212.9206767259
 10
237.0220846181
 20
213.2393237438
 10
237.3579162478
 20
213.5782643564
 10
237.6355142627
 20
213.9343339664
 10
237.8522868047
 20
214.3042080479
 10
238.0062099272
 20
214.6844331861
 10
238.0958464912
 20
215.0714593215
 10
238.1203375428
 20
215.3629778223
  0
LWPOLYLINE
  5
C4
330
1F
100
AcDbEntity
  8
0
  6
Continuous
 62
     1
370
    25
100
AcDbPolyline
 90
       52
 70
   128
 43
0.0
 10
216.749754118
 20
250.0425467021
 10
217.0099065818
 20
250.1834620808
 10
217.5547061581
 20
250.423594969
 10
218.1285893247
 20
250.6063413818
 10
218.7292912269
 20
250.7309801027
 10
219.3544411688
 20
250.7970192395
 10
220.0015719691
 20
250.804198166
 10
220.6681296983
 20
250.7524885503
 10
221.3514837574
 20
250.6420944665
 10
222.0489372603
 20
250.4734515896
 10
222.7577376766
 20
250.2472254761
 10
223.4750876948
 20
249.9643089371
 10
224.1981562621
 20
249.6258185149
 10
224.9240897573
 20
249.2330900765
 10
225.6500232525
 20
248.7876735417
 10
226.3730918199
 20
248.2913267661
 10
227.0904418381
 20
247.7460086036
 10
227.7992422543
 20
247.1538711758
 10
228.4966957572
 20
246.5172513788
 10
229.1800498163
 20
245.8386616599
 10
229.8466075455
 20
245.1207801027
 10
230.4937383459
 20
244.3664398579
 10
231.1188882877
 20
243.5786179617
 10
231.71959019
 20
242.7604235873
 10
232.2934733566
 20
241.915085774
 10
232.8382729328
 20
241.0459406839
 10
233.3518388438
 20
240.1564184358
 10
233.8321442793
 20
239.2500295674
 10
234.2772936934
 20
238.3303511817
 10
234.6855302846
 20
237.4010128289
 10
235.0552429296
 20
236.4656821831
 10
235.3849725415
 20
235.5280505669
 10
235.6734178282
 20
234.591818384
 10
235.9194404279
 20
233.6606805152
 10
236.1220694018
 20
232.738311736
 10
236.280505066
 20
231.8283522148
 10
236.3941221471
 20
230.9343931461
 10
236.4624722506
 20
230.0599625778
 10
236.4852856297
 20
229.208511488
 10
236.4624722506
 20
228.3834001651
 10
236.3941221471
 20
227.5878849466
 10
236.280505066
 20
226.8251053675
 10
236.1220694018
 20
226.0980717704
 10
235.9194404279
 20
225.4096534248
 10
235.6734178282
 20
224.7625672033
 10
235.3849725415
 20
224.1593668596
 10
235.0552429296
 20
223.60243295
 10
234.6855302846
 20
223.0939634381
 10
234.2772936934
 20
222.6359650208
 10
233.8321442793
 20
222.2302452086
 10
233.3518388438
 20
221.8784051923
 10
233.0984253966
 20
221.7227489023
  0
LWPOLYLINE
  5
C5
330
1F
100
AcDbEntity
  8
0
  6
Continuous
 62
     1
370
    25
100
AcDbPolyline
 90
       52
 70
   128
 43
0.0
 10
258.2261711478
 20
273.9863725947
 10
258.4863236115
 20
274.1272879734
 10
259.0311231878
 20
274.3674208616
 10
259.6050063544
 20
274.5501672744
 10
260.2057082566
 20
274.6748059953
 10
260.8308581985
 20
274.7408451321
 10
261.4779889989
 20
274.7480240586
 10
262.144546728
 20
274.6963144429
 10
262.8279007872
 20
274.5859203591
 10
263.5253542901
 20
274.4172774822
 10
264.2341547063
 20
274.1910513687
 10
264.9515047245
 20
273.9081348297
 10
265.6745732919
 20
273.5696444075
 10
266.4005067871
 20
273.1769159691
 10
267.1264402823
 20
272.7314994343
 10
267.8495088496
 20
272.2351526587
 10
268.5668588678
 20
271.6898344962
 10
269.2756592841
 20
271.0976970684
 10
269.9731127869
 20
270.4610772714
 10
270.6564668461
 20
269.7824875525
 10
271.3230245753
 20
269.0646059953
 10
271.9701553756
 20
268.3102657505
 10
272.5953053175
 20
267.5224438543
 10
273.1960072197
 20
266.7042494799
 10
273.7698903863
 20
265.8589116666
 10
274.3146899626
 20
264.9897665765
 10
274.8282558735
 20
264.1002443284
 10
275.3085613091
 20
263.1938554601
 10
275.7537107231
 20
262.2741770743
 10
276.1619473143
 20
261.3448387215
 10
276.5316599593
 20
260.4095080757
 10
276.8613895713
 20
259.4718764595
 10
277.149834858
 20
258.5356442767
 10
277.3958574577
 20
257.6045064078
 10
277.5984864316
 20
256.6821376286
 10
277.7569220957
 20
255.7721781074
 10
277.8705391768
 20
254.8782190387
 10
277.9388892803
 20
254.0037884704
 10
277.9617026595
 20
253.1523373806
 10
277.9388892803
 20
252.3272260577
 10
277.8705391768
 20
251.5317108392
 10
277.7569220957
 20
250.7689312601
 10
277.5984864316
 20
250.041897663
 10
277.3958574577
 20
249.3534793174
 10
277.149834858
 20
248.7063930959
 10
276.8613895713
 20
248.1031927522
 10
276.5316599593
 20
247.5462588426
 10
276.1619473143
 20
247.0377893307
 10
275.7537107231
 20
246.5797909134
 10
275.3085613091
 20
246.1740711012
 10
274.8282558735
 20
245.8222310849
 10
274.5748424264
 20
245.6665747949
  0
LINE
  5
C6
330
1F
100
AcDbEntity
  8
0
  6
Continuous
 62
     7
370
    25
100
AcDbLine
 10
-5.8705046416
 20
153.7978425974
 30
0.0
 11
-7.4067793084
 21
153.7978425974
 31
0.0
  0
LINE
  5
C7
330
1F
100
AcDbEntity
  8
0
  6
Continuous
 62
     7
370
    25
100
AcDbLine
 10
51.2497321738
 20
153.7978425974
 30
0.0
 11
8.5674731367
 21
153.7978425974
 31
0.0
  0
LINE
  5
C8
330
1F
100
AcDbEntity
  8
0
  6
Continuous
 62
     7
370
    25
100
AcDbLine
 10
8.561337256
 20
121.0978425974
 30
0.0
 11
51.2497321738
 21
121.0978425974
 31
0.0
  0
LINE
  5
C9
330
1F
100
AcDbEntity
  8
0
  6
Continuous
 62
     7
370
    25
100
AcDbLine
 10
-7.4067793084
 20
121.0978425974
 30
0.0
 11
-5.8516358172
 21
121.0978425974
 31
0.0
  0
ARC
  5
CA
330
1F
100
AcDbEntity
  8
0
  6
Continuous
 62
     7
370
    25
100
AcDbCircle
 10
51.2497321738
 20
150.7978425974
 30
0.0
 40
3.000000000000008
100
AcDbArc
 50
11.4933226741
 51
90.0
  0
ARC
  5
CB
330
1F
100
AcDbEntity
  8
0
  6
Continuous
 62
     7
370
    25
100
AcDbCircle
 10
51.2497321738
 20
124.0978425974
 30
0.0
 40
3.000000000000008
100
AcDbArc
 50
270.0
 51
348.5066773259
  0
ARC
  5
CC
330
1F
100
AcDbEntity
  8
0
  6
Continuous
 62
     7
370
    25
100
AcDbCircle
 10
-7.4067793084
 20
152.7978425974
 30
0.0
 40
1.000000000000001
100
AcDbArc
 50
90.0
 51
180.0
  0
ARC
  5
CD
330
1F
100
AcDbEntity
  8
0
  6
Continuous
 62
     7
370
    25
100
AcDbCircle
 10
-7.4067793084
 20
122.0978425974
 30
0.0
 40
1.000000000000001
100
AcDbArc
 50
180.0
 51
270.0
  0
ARC
  5
CE
330
1F
100
AcDbEntity
  8
0
  6
Continuous
 62
     7
370
    25
100
AcDbCircle
 10
-14.4067793084
 20
137.4478425974
 30
0.0
 40
70.00000000000001
100
AcDbArc
 50
348.5066773259
 51
0.0
  0
ARC
  5
CF
330
1F
100
AcDbEntity
  8
0
  6
Continuous
 62
     7
370
    25
100
AcDbCircle
 10
-14.4067793084
 20
137.4478425974
 30
0.0
 40
70.00000000000001
100
AcDbArc
 50
0.0
 51
11.4933226741
  0
LINE
  5
D0
330
1F
100
AcDbEntity
  8
0
  6
Continuous
 62
     7
370
    25
100
AcDbLine
 10
8.5854535226
 20
153.7978425974
 30
0.0
 11
8.3567921721
 21
166.8978425974
 31
0.0
  0
LINE
  5
D1
330
1F
100
AcDbEntity
  8
0
  6
Continuous
 62
     7
370
    25
100
AcDbLine
 10
-5.6432078279
 20
166.8978425974
 30
0.0
 11
-5.8718792522
 21
153.7972654766
 31
0.0
  0
LINE
  5
D2
330
1F
100
AcDbEntity
  8
0
  6
Continuous
 62
     7
370
    25
100
AcDbLine
 10
-5.8720200177
 20
121.1064841699
 30
0.0
 11
-5.6432078279
 21
107.9978425974
 31
0.0
  0
LINE
  5
D3
330
1F
100
AcDbEntity
  8
0
  6
Continuous
 62
     7
370
    25
100
AcDbLine
 10
8.3567921721
 20
107.9978425974
 30
0.0
 11
8.5856332512
 21
121.1081392399
 31
0.0
  0
SPLINE
  5
D4
330
1F
100
AcDbEntity
  8
0
  6
Continuous
 62
     7
370
    25
100
AcDbSpline
210
0.0
220
0.0
230
1.0
 70
     8
 71
     3
 72
    22
 73
    18
 74
     0
 42
0.00000001
 43
0.00000001
 40
0.0
 40
0.0
 40
0.0
 40
0.0
 40
0.070755052506997
 40
0.1434455608039563
 40
0.2142390435413751
 40
0.2874030568531403
 40
0.3530234243484806
 40
0.4207611912752433
 40
0.4833391194946723
 40
0.5475022264320248
 40
0.6147601489837706
 40
0.6836728097514781
 40
0.7565434683536886
 40
0.8315906613131707
 40
0.9029780214959385
 40
0.9767964027677264
 40
1.0
 40
1.0
 40
1.0
 40
1.0
 10
6.447251730772916
 20
121.9310367849499
 30
0.0
 10
6.15319029116726
 20
122.0243533524538
 30
0.0
 10
5.557023563556092
 20
122.2135390979744
 30
0.0
 10
4.507788456834999
 20
122.4720561514288
 30
0.0
 10
3.356981986699089
 20
122.6760323527966
 30
0.0
 10
2.172465151788431
 20
122.7907907386004
 30
0.0
 10
0.9800716507680705
 20
122.8077185818464
 30
0.0
 10
-0.1402339615590373
 20
122.7339652400382
 30
0.0
 10
-1.206988616032741
 20
122.5839861310766
 30
0.0
 10
-2.203773421019454
 20
122.3771243100184
 30
0.0
 10
-3.140662046779013
 20
122.1249780914102
 30
0.0
 10
-4.000607151312257
 20
121.8468527985236
 30
0.0
 10
-4.746444589324626
 20
121.5711885311614
 30
0.0
 10
-5.330780542036277
 20
121.333488042526
 30
0.0
 10
-5.710043162372614
 20
121.1699759694592
 30
0.0
 10
-5.879448992819503
 20
121.0944704497512
 30
0.0
 10
-5.857003774242322
 20
121.1044556903719
 30
0.0
 10
-5.851635817211494
 20
121.1068437420814
 30
0.0
  0
SPLINE
  5
D5
330
1F
100
AcDbEntity
  8
0
  6
Continuous
 62
     7
370
    25
100
AcDbSpline
210
0.0
220
0.0
230
1.0
 70
     8
 71
     3
 72
    13
 73
     9
 74
     0
 42
0.00000001
 43
0.00000001
 40
0.0
 40
0.0
 40
0.0
 40
0.0
 40
0.0761864676541605
 40
0.2687778535921918
 40
0.4668486744997412
 40
0.6621561970211114
 40
0.8623759538544881
 40
1.0
 40
1.0
 40
1.0
 40
1.0
 10
8.561337255983885
 20
121.1085682993833
 30
0.0
 10
8.567895785993693
 20
121.1056534176388
 30
0.0
 10
8.59103359081697
 20
121.0953700210874
 30
0.0
 10
8.437832447307253
 20
121.1635257414086
 30
0.0
 10
8.122780287614692
 20
121.3001159386243
 30
0.0
 10
7.628041001336642
 20
121.5035748136698
 30
0.0
 10
7.061137434630729
 20
121.7220044605663
 30
0.0
 10
6.624940789226354
 20
121.870532432637
 30
0.0
 10
6.447251730772916
 20
121.9310367849499
 30
0.0
  0
SPLINE
  5
D6
330
1F
100
AcDbEntity
  8
0
  6
Continuous
 62
     7
370
    25
100
AcDbSpline
210
0.0
220
0.0
230
1.0
 70
     8
 71
     3
 72
    12
 73
     8
 74
     0
 42
0.00000001
 43
0.00000001
 40
0.0
 40
0.0
 40
0.0
 40
0.0
 40
0.2106719360946269
 40
0.427148322053933
 40
0.6379229387193478
 40
0.85556062868685
 40
1.0
 40
1.0
 40
1.0
 40
1.0
 10
6.447251730772916
 20
152.9646484098552
 30
0.0
 10
6.714846469679244
 20
153.0570912963908
 30
0.0
 10
7.257408738926899
 20
153.2445240631918
 30
0.0
 10
7.873552265500829
 20
153.4916235708343
 30
0.0
 10
8.319052825941288
 20
153.6796844482801
 30
0.0
 10
8.559442052726345
 20
153.786251122638
 30
0.0
 10
8.565182974638333
 20
153.7888220751016
 30
0.0
 10
8.567473136707124
 20
153.7898476765473
 30
0.0
  0
SPLINE
  5
D7
330
1F
100
AcDbEntity
  8
0
  6
Continuous
 62
     7
370
    25
100
AcDbSpline
210
0.0
220
0.0
230
1.0
 70
     8
 71
     3
 72
    24
 73
    20
 74
     0
 42
0.00000001
 43
0.00000001
 40
0.0
 40
0.0
 40
0.0
 40
0.0
 40
0.0009309781807013
 40
0.0661327438795432
 40
0.1332523300315043
 40
0.1982821401088548
 40
0.2649661094703353
 40
0.3345916075419987
 40
0.4060263866602816
 40
0.4793273870388608
 40
0.5171968986485188
 40
0.5550629933590713
 40
0.6242785482409395
 40
0.6959336832536935
 40
0.7589050043143635
 40
0.8236458654704275
 40
0.8880127779534984
 40
0.9539291800427763
 40
1.0
 40
1.0
 40
1.0
 40
1.0
 10
-5.87050464156158
 20
153.7972381323042
 30
0.0
 10
-5.870959297047077
 20
153.797439530565
 30
0.0
 10
-5.903256095617697
 20
153.8117460093586
 30
0.0
 10
-5.795226352429545
 20
153.7636080456352
 30
0.0
 10
-5.548719591326496
 20
153.6555036831155
 30
0.0
 10
-5.110977137454821
 20
153.4711838169751
 30
0.0
 10
-4.52155973115656
 20
153.2388378366057
 30
0.0
 10
-3.765097387686725
 20
152.9683284678466
 30
0.0
 10
-2.846879514153758
 20
152.6845025354002
 30
0.0
 10
-1.959214706776492
 20
152.4639927312869
 30
0.0
 10
-1.18255387942557
 20
152.3148047355805
 30
0.0
 10
-0.3975387005435254
 20
152.194982174341
 30
0.0
 10
0.6135037098403302
 20
152.1005011537793
 30
0.0
 10
1.792525877581212
 20
152.0893499907793
 30
0.0
 10
2.929217702392805
 20
152.1702431545937
 30
0.0
 10
3.980898492509804
 20
152.32196258507
 30
0.0
 10
4.975954919591123
 20
152.5332037652451
 30
0.0
 10
5.800571291422356
 20
152.7566330469189
 30
0.0
 10
6.258757063159128
 20
152.904016010436
 30
0.0
 10
6.447251730772916
 20
152.9646484098552
 30
0.0
  0
LINE
  5
D8
330
1F
100
AcDbEntity
  8
0
  6
Continuous
 62
     7
370
    25
100
AcDbLine
 10
-8.4067793084
 20
152.7978425974
 30
0.0
 11
-8.4067793084
 21
122.0978425974
 31
0.0
  0
LINE
  5
D9
330
1F
100
AcDbEntity
  8
0
  6
Continuous
 62
     7
370
    25
100
AcDbLine
 10
-5.6432078279
 20
166.8978425974
 30
0.0
 11
8.3567921721
 21
166.8978425974
 31
0.0
  0
LINE
  5
DA
330
1F
100
AcDbEntity
  8
0
  6
Continuous
 62
     7
370
    25
100
AcDbLine
 10
-5.6432078279
 20
107.9978425974
 30
0.0
 11
8.3567921721
 21
107.9978425974
 31
0.0
  0
LINE
  5
DB
330
1F
100
AcDbEntity
  8
0
  6
Continuous
 62
     1
370
    25
100
AcDbLine
 10
-7.4067793084
 20
153.7978425974
 30
0.0
 11
-7.4067793084
 21
121.0978425974
 31
0.0
  0
LINE
  5
DC
330
1F
100
AcDbEntity
  8
0
  6
Continuous
 62
     1
370
    25
100
AcDbLine
 10
51.2497321738
 20
153.7978425974
 30
0.0
 11
51.2497321738
 21
121.0978425974
 31
0.0
  0
LINE
  5
DD
330
1F
100
AcDbEntity
  8
0
  6
Continuous
 62
     1
370
    25
100
AcDbLine
 10
54.1895759715
 20
151.3956037914
 30
0.0
 11
54.1895759715
 21
123.5000814034
 31
0.0
  0
LINE
  5
DE
330
1F
100
AcDbEntity
  8
0
  6
Continuous
 62
     7
370
    25
100
AcDbLine
 10
34.7773331526
 20
21.9839883791
 30
0.0
 11
35.0199854302
 21
10.6336782611
 31
0.0
  0
LINE
  5
DF
330
1F
100
AcDbEntity
  8
0
  6
Continuous
 62
     7
370
    25
100
AcDbLine
 10
49.0189193586
 20
10.6336782611
 30
0.0
 11
49.2622835245
 21
22.0172876911
 31
0.0
  0
SPLINE
  5
E0
330
1F
100
AcDbEntity
  8
0
  6
Continuous
 62
     7
370
    25
100
AcDbSpline
210
0.0
220
0.0
230
1.0
 70
     8
 71
     3
 72
    61
 73
    57
 74
     0
 42
0.00000001
 43
0.00000001
 40
0.0
 40
0.0
 40
0.0
 40
0.0
 40
0.0064818690697894
 40
0.0245471205064307
 40
0.0426143121237533
 40
0.0607314199835622
 40
0.078943378654665
 40
0.0972839565477336
 40
0.11577279378809
 40
0.1344145708656193
 40
0.1532004613088925
 40
0.1721114841421783
 40
0.1911228582989613
 40
0.2102082646776509
 40
0.2293431544672467
 40
0.2485067358466719
 40
0.267682737259605
 40
0.2868566487762216
 40
0.3060211742937303
 40
0.3251722259189675
 40
0.3443078191581472
 40
0.3634274814131391
 40
0.3825317924954821
 40
0.4016220442945498
 40
0.4206999977683774
 40
0.439767714842814
 40
0.4588274456958359
 40
0.4778815557201649
 40
0.4969324800229514
 40
0.5159826961939564
 40
0.5350344178224604
 40
0.5540896198336944
 40
0.5731508304393184
 40
0.5922205722073977
 40
0.611301338827486
 40
0.6303955559683994
 40
0.6495055172308475
 40
0.6686332835330397
 40
0.6877805305771184
 40
0.7069483247104101
 40
0.726136803287289
 40
0.7453447334292709
 40
0.7645689267293085
 40
0.7838035038910877
 40
0.8030356690975391
 40
0.822249356309473
 40
0.8414240654085515
 40
0.8605344833647429
 40
0.8795520090850619
 40
0.8984478460481141
 40
0.9171975221081721
 40
0.935786014079211
 40
0.9542121203741611
 40
0.9724907459754292
 40
0.9906524033033685
 40
0.9999999999999999
 40
0.9999999999999999
 40
0.9999999999999999
 40
0.9999999999999999
 10
56.358831927537
 20
24.13750600091219
 30
0.0
 10
56.42118305740605
 20
24.17102387073154
 30
0.0
 10
56.65730950212875
 20
24.29795750371855
 30
0.0
 10
57.03737889067857
 20
24.5693830291281
 30
0.0
 10
57.49610319307364
 20
24.94951756965581
 30
0.0
 10
57.9196701429833
 20
25.37888188409165
 30
0.0
 10
58.30938580741547
 20
25.85213257177512
 30
0.0
 10
58.66344589141148
 20
26.36932941316275
 30
0.0
 10
58.98077021021493
 20
26.92892961887013
 30
0.0
 10
59.26000036689698
 20
27.52950122052202
 30
0.0
 10
59.49986598341285
 20
28.16913896847431
 30
0.0
 10
59.69920631965318
 20
28.84558031171162
 30
0.0
 10
59.85707640477418
 20
29.55621345200221
 30
0.0
 10
59.97279448941794
 20
30.29817405844329
 30
0.0
 10
60.04595905195863
 20
31.0684412222031
 30
0.0
 10
60.07643347743933
 20
31.86392331560485
 30
0.0
 10
60.06431468906614
 20
32.68147878983141
 30
0.0
 10
60.00990413692302
 20
33.51799193762994
 30
0.0
 10
59.91367174868486
 20
34.37038844106398
 30
0.0
 10
59.77621850479706
 20
35.23567297999654
 30
0.0
 10
59.59826097107875
 20
36.11087015833915
 30
0.0
 10
59.38062290181627
 20
36.99301151070247
 30
0.0
 10
59.12423037636191
 20
37.87913093428485
 30
0.0
 10
58.83010916891724
 20
38.76626331582765
 30
0.0
 10
58.49938311423298
 20
39.65144616239091
 30
0.0
 10
58.13327263542399
 20
40.53172373811723
 30
0.0
 10
57.73309291610207
 20
41.40415312812733
 30
0.0
 10
57.30025142420485
 20
42.26581167611228
 30
0.0
 10
56.83624464741884
 20
43.11380530758981
 30
0.0
 10
56.34265650578909
 20
43.94527310200963
 30
0.0
 10
55.82115655497603
 20
44.75739313301169
 30
0.0
 10
55.27349034755081
 20
45.54740013944745
 30
0.0
 10
54.70146967276209
 20
46.31259807688703
 30
0.0
 10
54.10696207255356
 20
47.05037040431782
 30
0.0
 10
53.49188870599145
 20
47.75817901296027
 30
0.0
 10
52.85821722487546
 20
48.43356974169967
 30
0.0
 10
52.20795500911112
 20
49.07417651530967
 30
0.0
 10
51.54314328976392
 20
49.67772390707489
 30
0.0
 10
50.86585287425005
 20
50.24202801088678
 30
0.0
 10
50.17818242241619
 20
50.76499566851637
 30
0.0
 10
49.48226047964451
 20
51.24462239778494
 30
0.0
 10
48.7802526858305
 20
51.67898987980573
 30
0.0
 10
48.07437561985651
 20
52.06626466996184
 30
0.0
 10
47.36695967000601
 20
52.40468114242192
 30
0.0
 10
46.66046398451934
 20
52.69257431913784
 30
0.0
 10
45.95750066601826
 20
52.92841892362515
 30
0.0
 10
45.26081953261793
 20
53.11089007646869
 30
0.0
 10
44.57333059973932
 20
53.23891858639246
 30
0.0
 10
43.89807927384463
 20
53.31177716798594
 30
0.0
 10
43.23819199490447
 20
53.3291303064297
 30
0.0
 10
42.59670416222441
 20
53.2911901072445
 30
0.0
 10
41.97665626675457
 20
53.19832525951645
 30
0.0
 10
41.38014037844156
 20
53.05243004448668
 30
0.0
 10
40.81130637107288
 20
52.85151716745698
 30
0.0
 10
40.35255238543182
 20
52.64794840841578
 30
0.0
 10
40.09538308995357
 20
52.49264863371821
 30
0.0
 10
40.00799741040223
 20
52.43987804024251
 30
0.0
  0
LINE
  5
E1
330
1F
100
AcDbEntity
  8
0
  6
Continuous
 62
     7
370
    25
100
AcDbLine
 10
14.9141518252
 20
0.2042742936
 30
0.0
 11
34.9951202933
 21
11.7967706371
 31
0.0
  0
LINE
  5
E2
330
1F
100
AcDbEntity
  8
0
  6
Continuous
 62
     7
370
    25
100
AcDbLine
 10
49.2193330251
 20
20.0082338612
 30
0.0
 11
56.3905688549
 21
24.1481001862
 31
0.0
  0
LINE
  5
E3
330
1F
100
AcDbEntity
  8
0
  6
Continuous
 62
     7
370
    25
100
AcDbLine
 10
40.0418975763
 20
52.4678979861
 30
0.0
 11
-1.4345194534
 21
28.5240720935
 31
0.0
  0
LINE
  5
E4
330
1F
100
AcDbEntity
  8
0
  6
Continuous
 62
     7
370
    25
100
AcDbLine
 10
49.177173084
 20
51.4251881218
 30
0.0
 11
49.0189193586
 21
58.827669066
 31
0.0
  0
LINE
  5
E5
330
1F
100
AcDbEntity
  8
0
  6
Continuous
 62
     7
370
    25
100
AcDbLine
 10
35.0199854302
 20
58.827669066
 30
0.0
 11
34.8195717636
 21
49.4531134659
 31
0.0
  0
SPLINE
  5
E6
330
1F
100
AcDbEntity
  8
0
  6
Continuous
 62
     7
370
    25
100
AcDbSpline
210
0.0
220
0.0
230
1.0
 70
     8
 71
     3
 72
    22
 73
    18
 74
     0
 42
0.00000001
 43
0.00000001
 40
0.0
 40
0.0
 40
0.0
 40
0.0
 40
0.0046421447052961
 40
0.0715516646533333
 40
0.1383617692365322
 40
0.2053007276996923
 40
0.2726273716496644
 40
0.3405838190890331
 40
0.4093848336861063
 40
0.4792047340751635
 40
0.5501626915477512
 40
0.6223089199529154
 40
0.6956159301219067
 40
0.7699795466618363
 40
0.8452325004483663
 40
0.921169052193095
 40
1.0
 40
1.0
 40
1.0
 40
1.0
 10
-1.432054027686359
 20
28.5233513388974
 30
0.0
 10
-1.445432521836505
 20
28.51633874854918
 30
0.0
 10
-1.651641847001718
 20
28.40825023670804
 30
0.0
 10
-2.02416438187374
 20
28.15254643943639
 30
0.0
 10
-2.543084257541951
 20
27.75562155960397
 30
0.0
 10
-3.024211313006061
 20
27.30869298806875
 30
0.0
 10
-3.47029997679402
 20
26.82025893684956
 30
0.0
 10
-3.879340359030505
 20
26.28957314323265
 30
0.0
 10
-4.250583996207886
 20
25.71809980433021
 30
0.0
 10
-4.582816716801042
 20
25.10657578968612
 30
0.0
 10
-4.874776009408738
 20
24.45600734061442
 30
0.0
 10
-5.125080427456966
 20
23.76765966131602
 30
0.0
 10
-5.332222697131964
 20
23.04327223657831
 30
0.0
 10
-5.49515711656386
 20
22.28533269563999
 30
0.0
 10
-5.611689542826297
 20
21.49649029407494
 30
0.0
 10
-5.686097529753676
 20
20.67307764332862
 30
0.0
 10
-5.695347740736083
 20
20.10370681821117
 30
0.0
 10
-5.700059342986359
 20
19.81369733994449
 30
0.0
  0
SPLINE
  5
E7
330
1F
100
AcDbEntity
  8
0
  6
Continuous
 62
     7
370
    25
100
AcDbSpline
210
0.0
220
0.0
230
1.0
 70
     8
 71
     3
 72
    46
 73
    42
 74
     0
 42
0.00000001
 43
0.00000001
 40
0.0
 40
0.0
 40
0.0
 40
0.0
 40
0.014572040842452
 40
0.041342577003984
 40
0.0680806921664925
 40
0.0947875535859732
 40
0.1214452936598063
 40
0.1480454632806772
 40
0.1745864814106981
 40
0.2010715692303732
 40
0.2275071810229904
 40
0.2539018815839508
 40
0.2802655791046542
 40
0.3066090207739798
 40
0.332943471483139
 40
0.3592805116534813
 40
0.3856289078258421
 40
0.4119995986859903
 40
0.4384044273915235
 40
0.4648550666862863
 40
0.4913627683005518
 40
0.5179379607092863
 40
0.5445896173632628
 40
0.5713242971030842
 40
0.5981447413966883
 40
0.6250479154248664
 40
0.6520224334833282
 40
0.6790454655561139
 40
0.7060664431864095
 40
0.7330221448802697
 40
0.7598364785351114
 40
0.7864229540979355
 40
0.8126949158903489
 40
0.838578437721913
 40
0.8640240428055898
 40
0.8890135971066718
 40
0.9135610007617982
 40
0.9377079462589394
 40
0.9615173058937171
 40
0.9850664166621027
 40
0.9999999999999999
 40
0.9999999999999999
 40
0.9999999999999999
 40
0.9999999999999999
 10
-5.700059342986359
 20
19.81369733994449
 30
0.0
 10
-5.698671553872537
 20
19.65847652449503
 30
0.0
 10
-5.694734234527644
 20
19.2180969932597
 30
0.0
 10
-5.652134794053087
 20
18.4810502591318
 30
0.0
 10
-5.559158626807826
 20
17.60101258584628
 30
0.0
 10
-5.421467591306055
 20
16.71194146517921
 30
0.0
 10
-5.241023581193969
 20
15.817009023422
 30
0.0
 10
-5.018862879022108
 20
14.91915743704778
 30
0.0
 10
-4.756342386774252
 20
14.02128545876859
 30
0.0
 10
-4.454773483601276
 20
13.12616547762567
 30
0.0
 10
-4.115510838017981
 20
12.2365115845769
 30
0.0
 10
-3.739927457113889
 20
11.3549935356874
 30
0.0
 10
-3.329423270493546
 20
10.48425287191965
 30
0.0
 10
-2.885425002386182
 20
9.62690878739287
 30
0.0
 10
-2.409387030338227
 20
8.785559901104218
 30
0.0
 10
-1.902809124823521
 20
7.962814023363376
 30
0.0
 10
-1.36722529323231
 20
7.16125981775095
 30
0.0
 10
-0.8041933025401925
 20
6.383451828485421
 30
0.0
 10
-0.2152643061743495
 20
5.631880564946165
 30
0.0
 10
0.3980113276005441
 20
4.908996532735122
 30
0.0
 10
1.034082200878025
 20
4.217223937173092
 30
0.0
 10
1.691397202071083
 20
3.55896934692904
 30
0.0
 10
2.368401112822483
 20
2.936635286301097
 30
0.0
 10
3.063520920340204
 20
2.352638855500969
 30
0.0
 10
3.775138274145148
 20
1.809434294768708
 30
0.0
 10
4.501542971094081
 20
1.309536249127188
 30
0.0
 10
5.240863084988924
 20
0.8555370292726641
 30
0.0
 10
5.990849864779692
 20
0.4501718560334794
 30
0.0
 10
6.748800654897771
 20
0.0962201372788421
 30
0.0
 10
7.511492394643108
 20
-0.2036326044720406
 30
0.0
 10
8.275272515381769
 20
-0.447002037465321
 30
0.0
 10
9.036087336343996
 20
-0.6319752119094552
 30
0.0
 10
9.789627895618258
 20
-0.7572903947724446
 30
0.0
 10
10.53158568297484
 20
-0.8224694004456239
 30
0.0
 10
11.25789505715301
 20
-0.8278037781517602
 30
0.0
 10
11.96497096075569
 20
-0.7743419036468289
 30
0.0
 10
12.64959585648558
 20
-0.6633827821692466
 30
0.0
 10
13.30958018731935
 20
-0.4974861249514781
 30
0.0
 10
13.941183399229
 20
-0.2759296762265898
 30
0.0
 10
14.47572600194385
 20
-0.0422758327186072
 30
0.0
 10
14.7868015312896
 20
0.1381146057193895
 30
0.0
 10
14.90751741279819
 20
0.2081168679917179
 30
0.0
  0
SPLINE
  5
E8
330
1F
100
AcDbEntity
  8
0
  6
Continuous
 62
     7
370
    25
100
AcDbSpline
210
0.0
220
0.0
230
1.0
 70
     8
 71
     3
 72
    28
 73
    24
 74
     0
 42
0.00000001
 43
0.00000001
 40
0.0
 40
0.0
 40
0.0
 40
0.0
 40
0.0165466159668921
 40
0.0706634627314124
 40
0.1263966963730319
 40
0.1794119827178884
 40
0.234232648597929
 40
0.2831515777588994
 40
0.3335567281932207
 40
0.3815557273393054
 40
0.4307956961131355
 40
0.4818016857654761
 40
0.5341077112996109
 40
0.5883999440866358
 40
0.6443622126175628
 40
0.6966987346850955
 40
0.7509005524489583
 40
0.7981661731390306
 40
0.8468238614298422
 40
0.894027383954776
 40
0.9423762002783753
 40
0.9941111709950174
 40
1.0
 40
1.0
 40
1.0
 40
1.0
 10
49.24204831265352
 20
22.01805022807957
 30
0.0
 10
49.24869099443778
 20
22.06613125441921
 30
0.0
 10
49.27705902435022
 20
22.27146458781116
 30
0.0
 10
49.12278354347251
 20
22.6439911295362
 30
0.0
 10
48.76670943454066
 20
23.13757733753816
 30
0.0
 10
48.19117076358455
 20
23.64910804628783
 30
0.0
 10
47.46165724398782
 20
24.14903449146643
 30
0.0
 10
46.5944242284306
 20
24.63707802027734
 30
0.0
 10
45.65388895956476
 20
25.08618773725462
 30
0.0
 10
44.62950418879157
 20
25.50161257058607
 30
0.0
 10
43.54637681609442
 20
25.86746446027893
 30
0.0
 10
42.40037421072134
 20
26.17076289029285
 30
0.0
 10
41.20872882567716
 20
26.3850323362618
 30
0.0
 10
39.99757150752576
 20
26.47655429302512
 30
0.0
 10
38.83434167692874
 20
26.40771160409984
 30
0.0
 10
37.75516021374771
 20
26.15898914648877
 30
0.0
 10
36.84604407842328
 20
25.74671326037514
 30
0.0
 10
36.09630893415647
 20
25.1892807296921
 30
0.0
 10
35.52568041081605
 20
24.53833714025517
 30
0.0
 10
35.10206062815385
 20
23.79114855416287
 30
0.0
 10
34.85116724046061
 20
22.96830270999673
 30
0.0
 10
34.74480161265524
 20
22.34955210421642
 30
0.0
 10
34.78323122143654
 20
22.01840702961304
 30
0.0
 10
34.78715851182584
 20
21.9845658610403
 30
0.0
  0
LWPOLYLINE
  5
E9
330
1F
100
AcDbEntity
  8
0
  6
Continuous
 62
     7
370
    25
100
AcDbPolyline
 90
       66
 70
   128
 43
0.0
 10
37.0697049261
 20
7.8261183621
 10
36.6150926196
 20
8.1152394994
 10
36.2109393642
 20
8.4283402296
 10
35.86101863
 20
8.7624972154
 10
35.5685975325
 20
9.1145905231
 10
35.3364063288
 20
9.4813327524
 10
35.1666129256
 20
9.85929973
 10
35.060802638
 20
10.2449624799
 10
35.0199633884
 20
10.634720173
 10
35.0444764817
 20
11.0249337468
 10
35.1341130458
 20
11.4119598821
 10
35.2880361682
 20
11.7921850204
 10
35.5048087102
 20
12.1620591018
 10
35.7824067251
 20
12.5181287118
 10
36.1182383548
 20
12.8570693244
 10
36.5091680301
 20
13.1757163424
 10
36.9515457458
 20
13.4710946444
 10
37.4412411405
 20
13.7404463628
 10
37.97368206
 20
13.9812566331
 10
38.5438972471
 20
14.1912770749
 10
39.1465627562
 20
14.3685467837
 10
39.7760516618
 20
14.5114106402
 10
40.4264865955
 20
14.6185347629
 10
41.0917946218
 20
14.6889189627
 10
41.7657639387
 20
14.7219060815
 10
42.4421018763
 20
14.7171881272
 10
43.1144936497
 20
14.6748091503
 10
43.7766613178
 20
14.5951648318
 10
44.4224223997
 20
14.4789987891
 10
45.0457475981
 20
14.3273956335
 10
45.6408170936
 20
14.1417708427
 10
46.2020748826
 20
13.9238575453
 10
46.7242806524
 20
13.675690339
 10
47.2025587084
 20
13.3995862944
 10
47.6324434972
 20
13.0981233203
 10
48.0099213005
 20
12.7741160954
 10
48.3314677096
 20
12.4305897878
 10
48.5940805324
 20
12.0707518101
 10
48.7953078237
 20
11.6979618726
 10
48.9332707785
 20
11.3157006144
 10
49.0066812739
 20
10.927537106
 10
49.0148538959
 20
10.5370955253
 10
48.9577123388
 20
10.1480213204
 10
48.8357901181
 20
9.7639471721
 10
48.6502255886
 20
9.3884590773
 10
48.4027513163
 20
9.0250628672
 10
48.0956779019
 20
8.6771514743
 10
47.7318724071
 20
8.3479732536
 10
47.3147315857
 20
8.0406016533
 10
46.8481501693
 20
7.7579065193
 10
46.3364845028
 20
7.5025272999
 10
45.7845118706
 20
7.2768484021
 10
45.1973858926
 20
7.0829769289
 10
44.5805884057
 20
6.922723006
 10
43.9398782819
 20
6.7975828812
 10
43.2812376591
 20
6.708724954
 10
42.6108160872
 20
6.656978867
 10
41.9348731118
 20
6.6428277595
 10
41.2597198305
 20
6.6664037565
 10
40.5916599673
 20
6.7274867353
 10
39.9369310174
 20
6.8255063806
 10
39.3016460085
 20
6.9595475093
 10
38.6917364255
 20
7.1283586157
 10
38.1128968299
 20
7.3303635557
 10
37.570531691
 20
7.5636762639
 10
37.0697049261
 20
7.8261183621
  0
LWPOLYLINE
  5
EA
330
1F
100
AcDbEntity
  8
0
  6
Continuous
 62
     7
370
    25
100
AcDbPolyline
 90
       55
 70
   128
 43
0.0
 10
38.6606951837
 20
8.7445774879
 10
38.293477986
 20
8.9827886969
 10
37.9766482003
 20
9.243999741
 10
37.714490406
 20
9.5246781888
 10
37.5105498374
 20
9.821028346
 10
37.367584441
 20
10.1290425851
 10
37.2875275784
 20
10.4445555417
 10
37.2714618815
 20
10.7633004445
 10
37.3196046111
 20
11.0809668155
 10
37.4313047195
 20
11.3932587619
 10
37.6050516543
 20
11.6959530709
 10
37.8384957863
 20
11.9849563212
 10
38.128480184
 20
12.2563602396
 10
38.471083306
 20
12.5064945538
 10
38.8616720327
 20
12.7319766262
 10
39.2949643217
 20
12.9297571986
 10
39.7651006381
 20
13.0971616281
 10
40.2657231946
 20
13.231926057
 10
40.7900619301
 20
13.3322280275
 10
41.3310260627
 20
13.3967111275
 10
41.8812999804
 20
13.4245033337
 10
42.4334421724
 20
13.4152288043
 10
42.979985863
 20
13.3690129613
 10
43.5135399861
 20
13.2864807947
 10
44.0268891377
 20
13.1687484104
 10
44.513091151
 20
13.0174079371
 10
44.9655709779
 20
12.834505995
 10
45.378209605
 20
12.6225160191
 10
45.7454268028
 20
12.3843048101
 10
46.0622565885
 20
12.1230937661
 10
46.3244143828
 20
11.8424153182
 10
46.5283549514
 20
11.546065161
 10
46.6713203478
 20
11.238050922
 10
46.7513772103
 20
10.9225379653
 10
46.7674429073
 20
10.6037930625
 10
46.7193001776
 20
10.2861266916
 10
46.6076000693
 20
9.9738347452
 10
46.4338531345
 20
9.6711404362
 10
46.2004090025
 20
9.3821371859
 10
45.9104246048
 20
9.1107332674
 10
45.5678214828
 20
8.8605989533
 10
45.177232756
 20
8.6351168809
 10
44.7439404671
 20
8.4373363084
 10
44.2738041507
 20
8.2699318789
 10
43.7731815941
 20
8.1351674501
 10
43.2488428586
 20
8.0348654796
 10
42.7078787261
 20
7.9703823796
 10
42.1576048084
 20
7.9425901733
 10
41.6054626163
 20
7.9518647028
 10
41.0589189258
 20
7.9980805458
 10
40.5253648027
 20
8.0806127124
 10
40.0120156511
 20
8.1983450966
 10
39.5258136378
 20
8.3496855699
 10
39.0733338109
 20
8.532587512
 10
38.6606951837
 20
8.7445774879
  0
LWPOLYLINE
  5
EB
330
1F
100
AcDbEntity
  8
0
  6
Continuous
 62
     7
370
    25
100
AcDbPolyline
 90
       98
 70
   128
 43
0.0
 10
38.0692509056
 20
44.9821354003
 10
38.0920138164
 20
45.7803118167
 10
38.1602070734
 20
46.5488589065
 10
38.2735446504
 20
47.2845531159
 10
38.4315511701
 20
47.9843086878
 10
38.6335638983
 20
48.6451906041
 10
38.8787355233
 20
49.2644268965
 10
39.1660377103
 20
49.8394202727
 10
39.494265414
 20
50.3677590106
 10
39.8620419334
 20
50.8472270741
 10
40.2678246858
 20
51.2758134073
 10
40.7099116774
 20
51.6517203703
 10
41.1864486418
 20
51.9733712786
 10
41.6954368173
 20
52.2394170166
 10
42.2347413306
 20
52.4487416959
 10
42.8021001512
 20
52.6004673362
 10
43.3951335789
 20
52.6939575473
 10
44.0113542256
 20
52.7288201988
 10
44.6481774476
 20
52.7049090646
 10
45.3029321871
 20
52.6223244364
 10
45.9728721751
 20
52.4814127028
 10
46.6551874505
 20
52.2827648965
 10
47.3470161459
 20
52.0272142155
 10
48.0454564914
 20
51.7158325281
 10
48.7475789853
 20
51.3499258774
 10
49.4504386821
 20
50.9310290031
 10
50.1510875438
 20
50.4608989041
 10
50.8465868055
 20
49.9415074695
 10
51.5340193018
 20
49.3750332075
 10
52.2105017019
 20
48.763852108
 10
52.8731966033
 20
48.110527677
 10
53.5193244335
 20
47.4178001841
 10
54.1461751077
 20
46.6885751691
 10
54.7511193964
 20
45.9259112553
 10
55.3316199531
 20
45.1330073201
 10
55.8852419565
 20
44.3131890782
 10
56.4096633237
 20
43.4698951322
 10
56.9026844492
 20
42.60666255
 10
57.362237431
 20
41.7271120289
 10
57.7863947443
 20
40.8349327097
 10
58.1733773258
 20
39.9338667023
 10
58.5215620361
 20
39.0276933908
 10
58.8294884676
 20
38.1202135809
 10
59.0958650698
 20
37.2152335583
 10
59.3195745666
 20
36.3165491239
 10
59.4996786427
 20
35.4279296723
 10
59.635421879
 20
34.5531023824
 10
59.7262349211
 20
33.6957365838
 10
59.7717368677
 20
32.8594283668
 10
59.7717368677
 20
32.0476854985
 10
59.7262349211
 20
31.2639127107
 10
59.635421879
 20
30.5113974188
 10
59.4996786427
 20
29.7932959335
 10
59.3195745666
 20
29.112620222
 10
59.0958650698
 20
28.4722252747
 10
58.8294884676
 20
27.8747971306
 10
58.5215620361
 20
27.322841611
 10
58.1733773258
 20
26.8186738091
 10
57.7863947443
 20
26.3644083799
 10
57.362237431
 20
25.9619506705
 10
56.9026844492
 20
25.6129887284
 10
56.4096633237
 20
25.3189862212
 10
55.8852419565
 20
25.0811762977
 10
55.3316199531
 20
24.9005564152
 10
54.7511193964
 20
24.7778841564
 10
54.1461751077
 20
24.7136740514
 10
53.5193244335
 20
24.7081954195
 10
52.8731966033
 20
24.7614712402
 10
52.2105017019
 20
24.8732780561
 10
51.5340193018
 20
25.0431469105
 10
50.8465868055
 20
25.2703653145
 10
50.1510875438
 20
25.5539802352
 10
49.4504386821
 20
25.8928020929
 10
48.7475789853
 20
26.285409751
 10
48.0454564914
 20
26.7301564766
 10
47.3470161459
 20
27.2251768474
 10
46.6551874505
 20
27.7683945759
 10
45.9728721751
 20
28.3575312181
 10
45.3029321871
 20
28.9901157303
 10
44.6481774476
 20
29.6634948331
 10
44.0113542256
 20
30.3748441406
 10
43.3951335789
 20
31.1211800066
 10
42.8021001512
 20
31.8993720391
 10
42.2347413306
 20
32.7061562303
 10
41.6954368173
 20
33.5381486468
 10
41.1864486418
 20
34.3918596234
 10
40.7099116774
 20
35.2637083995
 10
40.2678246858
 20
36.1500381384
 10
39.8620419334
 20
37.0471312652
 10
39.494265414
 20
37.9512250594
 10
39.1660377103
 20
38.8585274375
 10
38.8787355233
 20
39.7652328581
 10
38.6335638983
 20
40.6675382835
 10
38.4315511701
 20
41.5616591312
 10
38.2735446504
 20
42.4438451476
 10
38.1602070734
 20
43.310396138
 10
38.0920138164
 20
44.1576774864
 10
38.0692509056
 20
44.9821354003
  0
LINE
  5
EC
330
1F
100
AcDbEntity
  8
0
  6
Continuous
 62
     7
370
    25
100
AcDbLine
 10
40.0084618745
 20
52.4484374392
 30
0.0
 11
40.0418975763
 21
52.4678979861
 31
0.0
  0
LINE
  5
ED
330
1F
100
AcDbEntity
  8
0
  6
Continuous
 62
     7
370
    25
100
AcDbLine
 10
56.3905688549
 20
24.1481001862
 30
0.0
 11
56.3651956867
 21
24.1335432049
 31
0.0
  0
LWPOLYLINE
  5
EE
330
1F
100
AcDbEntity
  8
0
  6
Continuous
 62
     7
370
    25
100
AcDbPolyline
 90
       80
 70
   128
 43
0.0
 10
41.7462061677
 20
42.8594743095
 10
41.7688942432
 20
43.5048509464
 10
41.8368150282
 20
44.11995221
 10
41.9495391057
 20
44.7008892322
 10
42.1063537979
 20
45.243989142
 10
42.3062676716
 20
45.745818287
 10
42.5480168071
 20
46.2032039416
 10
42.8300727884
 20
46.6132543667
 10
43.1506523669
 20
46.9733770913
 10
43.5077287352
 20
47.2812953036
 10
43.8990443416
 20
47.5350622455
 10
44.3221251628
 20
47.7330735208
 10
44.7742963457
 20
47.8740772384
 10
45.2526991183
 20
47.9571819274
 10
45.7543088645
 20
47.9818621732
 10
46.2759542458
 20
47.9479619393
 10
46.8143372522
 20
47.8556955539
 10
47.3660540529
 20
47.7056463549
 10
47.9276165169
 20
47.4987630015
 10
48.4954742652
 20
47.236353477
 10
49.0660371185
 20
46.9200768188
 10
49.6356977946
 20
46.5519326298
 10
50.2008547154
 20
46.1342484362
 10
50.7579347767
 20
45.6696649718
 10
51.3034159392
 20
45.1611194829
 10
51.8338494953
 20
44.6118271578
 10
52.3458818733
 20
44.0252607995
 10
52.8362758395
 20
43.4051288693
 10
53.3019309655
 20
42.7553520409
 10
53.7399032296
 20
42.0800384128
 10
54.1474236301
 20
41.3834575349
 10
54.521915692
 20
40.6700134161
 10
54.8610117557
 20
39.9442166796
 10
55.1625679467
 20
39.2106560462
 10
55.4246777299
 20
38.4739693223
 10
55.6456839626
 20
37.7388140786
 10
55.8241893724
 20
37.0098382032
 10
55.9590653906
 20
36.2916505164
 10
56.0494592875
 20
35.5887916319
 10
56.0947995639
 20
34.9057052499
 10
56.0947995639
 20
34.2467100625
 10
56.0494592875
 20
33.6159724494
 10
55.9590653906
 20
33.0174801368
 10
55.8241893724
 20
32.4550169859
 10
55.6456839626
 20
31.9321390698
 10
55.4246777299
 20
31.452152191
 10
55.1625679467
 20
31.0180909811
 10
54.8610117557
 20
30.6326997149
 10
54.521915692
 20
30.29841496
 10
54.1474236301
 20
30.0173501723
 10
53.7399032296
 20
29.7912823338
 10
53.3019309655
 20
29.6216407182
 10
52.8362758395
 20
29.5094978545
 10
52.3458818733
 20
29.4555627459
 10
51.8338494953
 20
29.4601763875
 10
51.3034159392
 20
29.5233096104
 10
50.7579347767
 20
29.6445632661
 10
50.2008547154
 20
29.8231707498
 10
49.6356977946
 20
30.0580028477
 10
49.0660371185
 20
30.3475748755
 10
48.4954742652
 20
30.6900560656
 10
47.9276165169
 20
31.0832811418
 10
47.3660540529
 20
31.5247640084
 10
46.8143372522
 20
32.0117134686
 10
46.2759542458
 20
32.5410508712
 10
45.7543088645
 20
33.1094295747
 10
45.2526991183
 20
33.7132561059
 10
44.7742963457
 20
34.3487128791
 10
44.3221251628
 20
35.0117823319
 10
43.8990443416
 20
35.6982723258
 10
43.5077287352
 20
36.40384265
 10
43.1506523669
 20
37.1240324617
 10
42.8300727884
 20
37.8542884891
 10
42.5480168071
 20
38.5899938184
 10
42.3062676716
 20
39.3264970838
 10
42.1063537979
 20
40.0591418743
 10
41.9495391057
 20
40.7832961738
 10
41.8368150282
 20
41.4943816456
 10
41.7688942432
 20
42.1879025784
 10
41.7462061677
 20
42.8594743095
  0
LWPOLYLINE
  5
EF
330
1F
100
AcDbEntity
  8
0
  6
Continuous
 62
     7
370
    25
100
AcDbPolyline
 90
       34
 70
   128
 43
0.0
 10
35.0199854302
 20
58.827669066
 10
35.0444764817
 20
59.1191875668
 10
35.1341130458
 20
59.5062137022
 10
35.2880361682
 20
59.8864388404
 10
35.5048087102
 20
60.2563129219
 10
35.7824067251
 20
60.6123825319
 10
36.1182383548
 20
60.9513231445
 10
36.5091680301
 20
61.2699701625
 10
36.9515457458
 20
61.5653484644
 10
37.4412411405
 20
61.8347001828
 10
37.97368206
 20
62.0755104532
 10
38.5438972471
 20
62.285530895
 10
39.1465627562
 20
62.4628006038
 10
39.7760516618
 20
62.6056644602
 10
40.4264865955
 20
62.7127885829
 10
41.0917946218
 20
62.7831727828
 10
41.7657639387
 20
62.8161599015
 10
42.4421018763
 20
62.8114419473
 10
43.1144936497
 20
62.7690629704
 10
43.7766613178
 20
62.6894186518
 10
44.4224223997
 20
62.5732526092
 10
45.0457475981
 20
62.4216494536
 10
45.6408170936
 20
62.2360246627
 10
46.2020748826
 20
62.0181113653
 10
46.7242806524
 20
61.7699441591
 10
47.2025587084
 20
61.4938401144
 10
47.6324434972
 20
61.1923771404
 10
48.0099213005
 20
60.8683699154
 10
48.3314677096
 20
60.5248436079
 10
48.5940805324
 20
60.1650056302
 10
48.7953078237
 20
59.7922156927
 10
48.9332707785
 20
59.4099544345
 10
49.0066812739
 20
59.021790926
 10
49.0189193586
 20
58.827669066
  0
ARC
  5
F0
330
1F
100
AcDbEntity
  8
0
  6
Continuous
 62
     1
370
    25
100
AcDbCircle
 10
44.7668842287
 20
45.8250017536
 30
0.0
 40
8.155518596834765
100
AcDbArc
 50
125.6943004651
 51
185.932065449
  0
LWPOLYLINE
  5
F1
330
1F
100
AcDbEntity
  8
0
  6
Continuous
 62
     1
370
    25
100
AcDbPolyline
 90
       39
 70
   128
 43
0.0
 10
56.3651956867
 20
24.1335432049
 10
56.1304163911
 20
24.0071848075
 10
55.5856168148
 20
23.7670519194
 10
55.0117336483
 20
23.5843055065
 10
54.411031746
 20
23.4596667856
 10
53.7858818041
 20
23.3936276488
 10
53.1387510038
 20
23.3864487223
 10
52.4721932746
 20
23.438158338
 10
51.7888392155
 20
23.5485524219
 10
51.0913857126
 20
23.7171952987
 10
50.3825852964
 20
23.9434214122
 10
49.6652352782
 20
24.2263379512
 10
48.9421667108
 20
24.5648283734
 10
48.2162332156
 20
24.9575568118
 10
47.4902997204
 20
25.4029733466
 10
46.767231153
 20
25.8993201222
 10
46.0498811348
 20
26.4446382847
 10
45.3410807186
 20
27.0367757125
 10
44.6436272157
 20
27.6733955096
 10
43.9602731566
 20
28.3519852285
 10
43.2937154274
 20
29.0698667856
 10
42.6465846271
 20
29.8242070304
 10
42.0214346852
 20
30.6120289266
 10
41.4207327829
 20
31.430223301
 10
40.8468496163
 20
32.2755611143
 10
40.3020500401
 20
33.1447062044
 10
39.7884841291
 20
34.0342284525
 10
39.3081786936
 20
34.9406173209
 10
38.8630292795
 20
35.8602957066
 10
38.4547926883
 20
36.7896340594
 10
38.0850800433
 20
37.7249647052
 10
37.7553504314
 20
38.6625963214
 10
37.4669051447
 20
39.5988285043
 10
37.220882545
 20
40.5299663732
 10
37.0182535711
 20
41.4523351523
 10
36.859817907
 20
42.3622946735
 10
36.7462008258
 20
43.2562537422
 10
36.6778507223
 20
44.1306843105
 10
36.6550373432
 20
44.9821354003
  0
LWPOLYLINE
  5
F2
330
1F
100
AcDbEntity
  8
0
  6
Continuous
 62
     1
370
    25
100
AcDbPolyline
 90
       14
 70
   128
 43
0.0
 10
-4.8213796865
 20
21.0383095077
 10
-4.7985663074
 20
21.8634208306
 10
-4.7302162039
 20
22.6589360491
 10
-4.6165991228
 20
23.4217156282
 10
-4.4581634587
 20
24.1487492253
 10
-4.2555344848
 20
24.8371675709
 10
-4.0095118851
 20
25.4842537924
 10
-3.7210665984
 20
26.0874541361
 10
-3.3913369864
 20
26.6443880457
 10
-3.0216243414
 20
27.1528575576
 10
-2.6133877502
 20
27.6108559749
 10
-2.1682383362
 20
28.0165757871
 10
-1.6879329006
 20
28.3684158034
 10
-1.4345194534
 20
28.5240720935
  0
LWPOLYLINE
  5
F3
330
1F
100
AcDbEntity
  8
0
  6
Continuous
 62
     1
370
    25
100
AcDbPolyline
 90
       39
 70
   128
 43
0.0
 10
14.9141518252
 20
0.2042742936
 10
14.6539993614
 20
0.0633589149
 10
14.1091997851
 20
-0.1767739733
 10
13.5353166185
 20
-0.3595203861
 10
12.9346147163
 20
-0.484159107
 10
12.3094647744
 20
-0.5501982438
 10
11.662333974
 20
-0.5573771703
 10
10.9957762449
 20
-0.5056675546
 10
10.3124221857
 20
-0.3952734707
 10
9.6149686829
 20
-0.2266305939
 10
8.9061682666
 20
-0.0004044804
 10
8.1888182484
 20
0.2825120586
 10
7.4657496811
 20
0.6210024808
 10
6.7398161859
 20
1.0137309192
 10
6.0138826906
 20
1.459147454
 10
5.2908141233
 20
1.9554942296
 10
4.5734641051
 20
2.5008123921
 10
3.8646636889
 20
3.0929498199
 10
3.167210186
 20
3.7295696169
 10
2.4838561268
 20
4.4081593358
 10
1.8172983977
 20
5.126040893
 10
1.1701675973
 20
5.8803811378
 10
0.5450176554
 20
6.668203034
 10
-0.0556842468
 20
7.4863974084
 10
-0.6295674134
 20
8.3317352217
 10
-1.1743669897
 20
9.2008803118
 10
-1.6879329006
 20
10.0904025599
 10
-2.1682383362
 20
10.9967914283
 10
-2.6133877502
 20
11.916469814
 10
-3.0216243414
 20
12.8458081668
 10
-3.3913369864
 20
13.7811388126
 10
-3.7210665984
 20
14.7187704288
 10
-4.0095118851
 20
15.6550026117
 10
-4.2555344848
 20
16.5861404806
 10
-4.4581634587
 20
17.5085092597
 10
-4.6165991228
 20
18.4184687809
 10
-4.7302162039
 20
19.3124278496
 10
-4.7985663074
 20
20.1868584179
 10
-4.8213796865
 20
21.0383095077
  0
LINE
  5
F4
330
1F
100
AcDbEntity
  8
0
  6
Continuous
 62
     7
370
    25
100
AcDbLine
 10
121.049234026
 20
23.6926657648
 30
0.0
 11
121.049234026
 21
-34.9638457173
 31
0.0
  0
LINE
  5
F5
330
1F
100
AcDbEntity
  8
0
  6
Continuous
 62
     7
370
    25
100
AcDbLine
 10
153.749234026
 20
-34.9638457173
 30
0.0
 11
153.749234026
 21
23.6926657648
 31
0.0
  0
ARC
  5
F6
330
1F
100
AcDbEntity
  8
0
  6
Continuous
 62
     7
370
    25
100
AcDbCircle
 10
124.049234026
 20
23.6926657648
 30
0.0
 40
3.000000000000014
100
AcDbArc
 50
101.4933226741
 51
180.0
  0
ARC
  5
F7
330
1F
100
AcDbEntity
  8
0
  6
Continuous
 62
     7
370
    25
100
AcDbCircle
 10
150.749234026
 20
23.6926657648
 30
0.0
 40
3.000000000000008
100
AcDbArc
 50
0.0
 51
78.5066773259
  0
ARC
  5
F8
330
1F
100
AcDbEntity
  8
0
  6
Continuous
 62
     7
370
    25
100
AcDbCircle
 10
122.049234026
 20
-34.9638457173
 30
0.0
 40
1.0
100
AcDbArc
 50
180.0
 51
270.0
  0
ARC
  5
F9
330
1F
100
AcDbEntity
  8
0
  6
Continuous
 62
     7
370
    25
100
AcDbCircle
 10
152.749234026
 20
-34.9638457173
 30
0.0
 40
1.0
100
AcDbArc
 50
270.0
 51
0.0
  0
ARC
  5
FA
330
1F
100
AcDbEntity
  8
0
  6
Continuous
 62
     7
370
    25
100
AcDbCircle
 10
137.399234026
 20
-41.9638457173
 30
0.0
 40
70.00000000000001
100
AcDbArc
 50
78.5066773259
 51
90.0
  0
ARC
  5
FB
330
1F
100
AcDbEntity
  8
0
  6
Continuous
 62
     7
370
    25
100
AcDbCircle
 10
137.399234026
 20
-41.9638457173
 30
0.0
 40
70.00000000000001
100
AcDbArc
 50
90.0
 51
101.4933226741
  0
SPLINE
  5
FC
330
1F
100
AcDbEntity
  8
0
  6
Continuous
 62
     7
370
    25
100
AcDbSpline
210
0.0
220
0.0
230
1.0
 70
    11
 71
     3
 72
    96
 73
    92
 74
     0
 42
0.00000001
 43
0.00000001
 40
0.0
 40
0.0
 40
0.0
 40
0.0
 40
0.03125
 40
0.03125
 40
0.0468749999999999
 40
0.0468749999999999
 40
0.0624999999999999
 40
0.0624999999999999
 40
0.0937499999999998
 40
0.0937499999999998
 40
0.1249999999999997
 40
0.1249999999999997
 40
0.1562499999999996
 40
0.1562499999999996
 40
0.1874999999999995
 40
0.1874999999999995
 40
0.2031249999999995
 40
0.2031249999999995
 40
0.2187499999999995
 40
0.2187499999999995
 40
0.2499999999999994
 40
0.2499999999999994
 40
0.2656249999999993
 40
0.2656249999999993
 40
0.2812499999999993
 40
0.2812499999999993
 40
0.3124999999999993
 40
0.3124999999999993
 40
0.3437499999999992
 40
0.3437499999999992
 40
0.3593749999999992
 40
0.3593749999999992
 40
0.3749999999999992
 40
0.3749999999999992
 40
0.4062499999999994
 40
0.4062499999999994
 40
0.4218749999999996
 40
0.4218749999999996
 40
0.4374999999999997
 40
0.4374999999999997
 40
0.4531249999999997
 40
0.4531249999999997
 40
0.4687499999999998
 40
0.4687499999999998
 40
0.4999999999999999
 40
0.4999999999999999
 40
0.5312499999999999
 40
0.5312499999999999
 40
0.5624999999999999
 40
0.5624999999999999
 40
0.5781249999999999
 40
0.5781249999999999
 40
0.5937499999999999
 40
0.5937499999999999
 40
0.6249999999999998
 40
0.6249999999999998
 40
0.6562499999999998
 40
0.6562499999999998
 40
0.6718749999999998
 40
0.6718749999999998
 40
0.6874999999999998
 40
0.6874999999999998
 40
0.7187499999999997
 40
0.7187499999999997
 40
0.7343749999999996
 40
0.7343749999999996
 40
0.7499999999999994
 40
0.7499999999999994
 40
0.7656249999999993
 40
0.7656249999999993
 40
0.7812499999999992
 40
0.7812499999999992
 40
0.8124999999999992
 40
0.8124999999999992
 40
0.8281249999999992
 40
0.8281249999999992
 40
0.8437499999999992
 40
0.8437499999999992
 40
0.8749999999999994
 40
0.8749999999999994
 40
0.8906249999999993
 40
0.8906249999999993
 40
0.9062499999999993
 40
0.9062499999999993
 40
0.9218749999999994
 40
0.9218749999999994
 40
0.9374999999999996
 40
0.9374999999999996
 40
0.9687499999999998
 40
0.9687499999999998
 40
1.0
 40
1.0
 40
1.0
 40
1.0
 10
142.5520233092173
 20
-21.10981467813251
 30
0.0
 10
142.2191544718136
 20
-20.77561547266325
 30
0.0
 10
141.8590015395039
 20
-20.47856200501176
 30
0.0
 10
141.2776405457221
 20
-20.08605393087869
 30
0.0
 10
141.0769458672114
 20
-19.96414045833361
 30
0.0
 10
140.6610470317733
 20
-19.73864192433711
 30
0.0
 10
140.4450759866179
 20
-19.63486990204398
 30
0.0
 10
139.789218531464
 20
-19.35853293806997
 30
0.0
 10
139.3372628247387
 20
-19.2179715246029
 30
0.0
 10
138.4028075261741
 20
-19.02531471378046
 30
0.0
 10
137.9164412050737
 20
-18.97426198234078
 30
0.0
 10
136.9595564491846
 20
-18.96917006959425
 30
0.0
 10
136.4836494269768
 20
-19.01330866068334
 30
0.0
 10
135.536989565741
 20
-19.19719026322112
 30
0.0
 10
135.0789436987595
 20
-19.33486787504681
 30
0.0
 10
134.4222357106911
 20
-19.60364051717338
 30
0.0
 10
134.2078910847816
 20
-19.70379730861835
 30
0.0
 10
133.7882806022224
 20
-19.92552825615374
 30
0.0
 10
133.5836165859676
 20
-20.04693993024154
 30
0.0
 10
132.9952625808983
 20
-20.43565179376022
 30
0.0
 10
132.6326770034388
 20
-20.72930639763884
 30
0.0
 10
132.1315652505641
 20
-21.22231257929824
 30
0.0
 10
131.9710833373504
 20
-21.39634072146273
 30
0.0
 10
131.6703541032642
 20
-21.75616089678697
 30
0.0
 10
131.5295089354706
 20
-21.94239630309758
 30
0.0
 10
131.1348286077629
 20
-22.52018776162003
 30
0.0
 10
130.9085136432493
 20
-22.9305922364332
 30
0.0
 10
130.5335019253114
 20
-23.80768402317705
 30
0.0
 10
130.3909118264176
 20
-24.26094648634212
 30
0.0
 10
130.2450652973182
 20
-24.95751761589464
 30
0.0
 10
130.2077446130801
 20
-25.19281478297734
 30
0.0
 10
130.1564723100132
 20
-25.66990825568912
 30
0.0
 10
130.1425959736255
 20
-25.91328987248831
 30
0.0
 10
130.1379758401638
 20
-26.63630491748505
 30
0.0
 10
130.182888133871
 20
-27.11183237806433
 30
0.0
 10
130.3205033973017
 20
-27.81576037087777
 30
0.0
 10
130.3786020037536
 20
-28.05015104537879
 30
0.0
 10
130.5168919594077
 20
-28.50857048034795
 30
0.0
 10
130.5967747269451
 20
-28.73218021344863
 30
0.0
 10
130.7772266150699
 20
-29.16885045384817
 30
0.0
 10
130.8777979633776
 20
-29.38190959558531
 30
0.0
 10
131.0995601811103
 20
-29.7977892381355
 30
0.0
 10
131.2213658381996
 20
-30.00150041419419
 30
0.0
 10
131.6140097222137
 20
-30.5904940105268
 30
0.0
 10
131.9095183535507
 20
-30.95141861926532
 30
0.0
 10
132.5674657915413
 20
-31.61405518726058
 30
0.0
 10
132.93394537017
 20
-31.91780543257843
 30
0.0
 10
133.7105478204724
 20
-32.4430327846872
 30
0.0
 10
134.1222916125629
 20
-32.66729460343186
 30
0.0
 10
134.7773814829751
 20
-32.94480511758508
 30
0.0
 10
135.0035107923131
 20
-33.02782279037068
 30
0.0
 10
135.4603134057686
 20
-33.17021496538931
 30
0.0
 10
135.6910101298662
 20
-33.22980290421068
 30
0.0
 10
136.3899332225255
 20
-33.37435454452657
 30
0.0
 10
136.8649292329534
 20
-33.42546159016216
 30
0.0
 10
137.8341917518383
 20
-33.43207087094959
 30
0.0
 10
138.312913398387
 20
-33.38714617561669
 30
0.0
 10
139.0156081859229
 20
-33.25134354346815
 30
0.0
 10
139.2476605417082
 20
-33.1945876738567
 30
0.0
 10
139.7073752162218
 20
-33.05771231540639
 30
0.0
 10
139.9343155982683
 20
-32.97764907547452
 30
0.0
 10
140.5937179278587
 20
-32.70814102793663
 30
0.0
 10
141.0100297441096
 20
-32.48828516997435
 30
0.0
 10
141.601171480204
 20
-32.09868970385749
 30
0.0
 10
141.7929260279276
 20
-31.95837286040953
 30
0.0
 10
142.1578826071549
 20
-31.6630926947851
 30
0.0
 10
142.3320891128338
 20
-31.50753463525482
 30
0.0
 10
142.6645193560678
 20
-31.18067913580464
 30
0.0
 10
142.8227424783728
 20
-31.00938209488078
 30
0.0
 10
143.1232314963171
 20
-30.65059758361702
 30
0.0
 10
143.2661197211702
 20
-30.46217574070163
 30
0.0
 10
143.6654407844657
 20
-29.87798802680967
 30
0.0
 10
143.8908148299379
 20
-29.46735043075275
 30
0.0
 10
144.1686813621246
 20
-28.8183523047389
 30
0.0
 10
144.2511889650344
 20
-28.59647213326238
 30
0.0
 10
144.3951026443428
 20
-28.14087034350446
 30
0.0
 10
144.4563775853247
 20
-27.90682722699976
 30
0.0
 10
144.603126305082
 20
-27.2047446601272
 30
0.0
 10
144.6540032203216
 20
-26.73083543899302
 30
0.0
 10
144.6590696371379
 20
-26.01095359474307
 30
0.0
 10
144.6486192029755
 20
-25.76793192948656
 30
0.0
 10
144.6034460599422
 20
-25.28693188611675
 30
0.0
 10
144.5689837766969
 20
-25.04969337515576
 30
0.0
 10
144.477175476664
 20
-24.58143722067509
 30
0.0
 10
144.4198274257307
 20
-24.35042009638993
 30
0.0
 10
144.2823731225116
 20
-23.89447021055635
 30
0.0
 10
144.2018198993285
 20
-23.66849720947853
 30
0.0
 10
143.9284044200772
 20
-23.00740143455806
 30
0.0
 10
143.7063941466782
 20
-22.5929618304208
 30
0.0
 10
143.18573223112
 20
-21.81199869833655
 30
0.0
 10
142.8848921466211
 20
-21.44401388360177
 30
0.0
 10
142.5520233092173
 20
-21.10981467813252
 30
0.0
  0
CIRCLE
  5
FD
330
1F
100
AcDbEntity
  8
0
  6
Continuous
 62
     7
370
    25
100
AcDbCircle
 10
137.399234026
 20
-26.2002742368
 30
0.0
 40
7.0
  0
CIRCLE
  5
FE
330
1F
100
AcDbEntity
  8
0
  6
Continuous
 62
     7
370
    25
100
AcDbCircle
 10
137.399234026
 20
-26.2002742368
 30
0.0
 40
4.75
  0
LINE
  5
FF
330
1F
100
AcDbEntity
  8
0
  6
Continuous
 62
     7
370
    25
100
AcDbLine
 10
122.049234026
 20
-35.9638457173
 30
0.0
 11
152.7492340257
 21
-35.9638457173
 31
0.0
  0
LINE
  5
100
330
1F
100
AcDbEntity
  8
0
  6
Continuous
 62
     1
370
    25
100
AcDbLine
 10
121.049234026
 20
-34.9638457173
 30
0.0
 11
153.749234026
 21
-34.9638457173
 31
0.0
  0
LINE
  5
101
330
1F
100
AcDbEntity
  8
0
  6
Continuous
 62
     1
370
    25
100
AcDbLine
 10
121.049234026
 20
23.6926657648
 30
0.0
 11
153.749234026
 21
23.6926657648
 31
0.0
  0
LINE
  5
102
330
1F
100
AcDbEntity
  8
0
  6
Continuous
 62
     1
370
    25
100
AcDbLine
 10
123.4514728319
 20
26.6325095626
 30
0.0
 11
151.34699522
 21
26.6325095626
 31
0.0
  0
INSERT
  5
10E
330
1F
100
AcDbEntity
  8
FORMAT
 62
     7
100
AcDbBlockReference
  2
SW_CENTERMARKSYMBOL_1
 10
137.399234026
 20
-26.2002742368
 30
0.0
  0
LINE
  5
10F
330
1F
100
AcDbEntity
  8
0
  6
Continuous
 62
     7
370
    25
100
AcDbLine
 10
240.6434590544
 20
5.957019549
 30
0.0
 11
240.8868256922
 21
-5.4267055103
 31
0.0
  0
LINE
  5
110
330
1F
100
AcDbEntity
  8
0
  6
Continuous
 62
     7
370
    25
100
AcDbLine
 10
254.8857596207
 20
-5.4267055103
 30
0.0
 11
255.1284053805
 21
5.9232997377
 31
0.0
  0
SPLINE
  5
111
330
1F
100
AcDbEntity
  8
0
  6
Continuous
 62
     7
370
    25
100
AcDbSpline
210
0.0
220
0.0
230
1.0
 70
     8
 71
     3
 72
    47
 73
    43
 74
     0
 42
0.00000001
 43
0.00000001
 40
0.0
 40
0.0
 40
0.0
 40
0.0
 40
0.0107890870788283
 40
0.0349924234930627
 40
0.0592042181818357
 40
0.083490993636973
 40
0.1079113935929801
 40
0.1325084734943033
 40
0.1573060555151908
 40
0.1823079966054858
 40
0.2075004950841173
 40
0.2328568253989833
 40
0.2583432356157161
 40
0.2839245502190407
 40
0.3095683950164054
 40
0.3352476380592613
 40
0.3609411663948862
 40
0.3866299762980802
 40
0.4123053456262655
 40
0.4379621963051455
 40
0.463598160577732
 40
0.4892128104144169
 40
0.5148070630529439
 40
0.540382742888665
 40
0.5659422699312879
 40
0.5914884451177634
 40
0.6170243069367856
 40
0.6425530389507927
 40
0.6680779124824437
 40
0.6936022524513025
 40
0.7191288889192504
 40
0.7446606090839735
 40
0.7702008006055946
 40
0.7957528405365167
 40
0.821320062103833
 40
0.8469056988293666
 40
0.8725127935696482
 40
0.8981440562977953
 40
0.9238016493716781
 40
0.9494868731694371
 40
0.975199719490434
 40
1.0
 40
1.0
 40
1.0
 40
1.0
 10
249.8696051537339
 20
36.3959919108405
 30
0.0
 10
249.7943441000521
 20
36.44147555311405
 30
0.0
 10
249.55024868737
 20
36.58899339784122
 30
0.0
 10
249.1074826194278
 20
36.78544764345719
 30
0.0
 10
248.5457026860157
 20
36.98583875752453
 30
0.0
 10
247.9593613463129
 20
37.13155978007151
 30
0.0
 10
247.3520507483303
 20
37.22584578042093
 30
0.0
 10
246.7247334365283
 20
37.26725082435895
 30
0.0
 10
246.0792894952481
 20
37.25557534830303
 30
0.0
 10
245.4176826739607
 20
37.19038985576949
 30
0.0
 10
244.7422329705664
 20
37.0715771115706
 30
0.0
 10
244.0555094309891
 20
36.89930637659777
 30
0.0
 10
243.3602628136087
 20
36.67411028279612
 30
0.0
 10
242.6593185682275
 20
36.39687325937093
 30
0.0
 10
241.9554876356605
 20
36.06879439454394
 30
0.0
 10
241.2515044001307
 20
35.69133060729587
 30
0.0
 10
240.5500296011038
 20
35.2661613093265
 30
0.0
 10
239.8535950025183
 20
34.79512295007837
 30
0.0
 10
239.1646134760146
 20
34.28017305977875
 30
0.0
 10
238.485364128069
 20
33.72333872001563
 30
0.0
 10
237.8180573481849
 20
33.12673965617542
 30
0.0
 10
237.1648449458947
 20
32.49258464305135
 30
0.0
 10
236.5278260221215
 20
31.82316969509611
 30
0.0
 10
235.9090490425029
 20
31.12087643675863
 30
0.0
 10
235.3105109174818
 20
30.38816975117151
 30
0.0
 10
234.7341539321686
 20
29.62759428244471
 30
0.0
 10
234.1818612704753
 20
28.84176966132253
 30
0.0
 10
233.6554517421953
 20
28.03338449356514
 30
0.0
 10
233.156674189343
 20
27.20518924198439
 30
0.0
 10
232.6872051796422
 20
26.35999400571982
 30
0.0
 10
232.2486429647401
 20
25.50066097507197
 30
0.0
 10
231.84249816801
 20
24.63008856868736
 30
0.0
 10
231.4701871909944
 20
23.75119500589209
 30
0.0
 10
231.1330306851726
 20
22.86690761022039
 30
0.0
 10
230.8322525872834
 20
21.98015888918509
 30
0.0
 10
230.5689874382001
 20
21.09388185914554
 30
0.0
 10
230.3442488995324
 20
20.2109867553957
 30
0.0
 10
230.1590479293608
 20
19.33441290819634
 30
0.0
 10
230.0139556133079
 20
18.46690813308197
 30
0.0
 10
229.9107440734333
 20
17.61183842496669
 30
0.0
 10
229.8470433766804
 20
16.78039999557405
 30
0.0
 10
229.8392493528537
 20
16.24469604229741
 30
0.0
 10
229.835422744023
 20
15.98168305646685
 30
0.0
  0
SPLINE
  5
112
330
1F
100
AcDbEntity
  8
0
  6
Continuous
 62
     7
370
    25
100
AcDbSpline
210
0.0
220
0.0
230
1.0
 70
     8
 71
     3
 72
    21
 73
    17
 74
     0
 42
0.00000001
 43
0.00000001
 40
0.0
 40
0.0
 40
0.0
 40
0.0
 40
0.0403338150605644
 40
0.1165395051531467
 40
0.1927850378944809
 40
0.2689830900457915
 40
0.3450601853971608
 40
0.420922891628711
 40
0.4964617345315996
 40
0.5715610127755091
 40
0.6461147774118582
 40
0.7200467811927826
 40
0.7933296447457409
 40
0.8659975925769865
 40
0.9381488059967072
 40
1.0
 40
1.0
 40
1.0
 40
1.0
 10
229.835422744023
 20
15.98168305646685
 30
0.0
 10
229.8366277359882
 20
15.83874701226469
 30
0.0
 10
229.840109409297
 20
15.42575122114364
 30
0.0
 10
229.8787922353601
 20
14.75949675119449
 30
0.0
 10
229.9657120482676
 20
13.99324781953556
 30
0.0
 10
230.0965521033037
 20
13.25510506215442
 30
0.0
 10
230.2704341913079
 20
12.54785234505515
 30
0.0
 10
230.4871499683535
 20
11.87463569109922
 30
0.0
 10
230.7458985105826
 20
11.23846191348731
 30
0.0
 10
231.0455680881927
 20
10.64227488550546
 30
0.0
 10
231.3846122198576
 20
10.08874450864541
 30
0.0
 10
231.7612359266705
 20
9.58036147254997
 30
0.0
 10
232.1730527016829
 20
9.118593957817673
 30
0.0
 10
232.6188275746305
 20
8.70662548492505
 30
0.0
 10
233.0709494447732
 20
8.356041363698004
 30
0.0
 10
233.3883479622655
 20
8.167420675250959
 30
0.0
 10
233.5348488920571
 20
8.080359442407994
 30
0.0
  0
LINE
  5
113
330
1F
100
AcDbEntity
  8
0
  6
Continuous
 62
     7
370
    25
100
AcDbLine
 10
291.3402645043
 20
12.463688322
 30
0.0
 11
249.8638474745
 21
36.4075142146
 31
0.0
  0
LINE
  5
114
330
1F
100
AcDbEntity
  8
0
  6
Continuous
 62
     7
370
    25
100
AcDbLine
 10
233.5151761959
 20
8.0877164148
 30
0.0
 11
240.6864120257
 21
3.9478500898
 31
0.0
  0
LINE
  5
115
330
1F
100
AcDbEntity
  8
0
  6
Continuous
 62
     7
370
    25
100
AcDbLine
 10
254.9106247575
 20
-4.2636131344
 30
0.0
 11
274.9915932257
 21
-15.8561094778
 31
0.0
  0
LINE
  5
116
330
1F
100
AcDbEntity
  8
0
  6
Continuous
 62
     7
370
    25
100
AcDbLine
 10
255.0861732872
 20
33.3927296945
 30
0.0
 11
254.8857596207
 21
42.7672852946
 31
0.0
  0
LINE
  5
117
330
1F
100
AcDbEntity
  8
0
  6
Continuous
 62
     7
370
    25
100
AcDbLine
 10
240.8868256922
 20
42.7672852946
 30
0.0
 11
240.7286023209
 21
35.3662241917
 31
0.0
  0
SPLINE
  5
118
330
1F
100
AcDbEntity
  8
0
  6
Continuous
 62
     7
370
    25
100
AcDbSpline
210
0.0
220
0.0
230
1.0
 70
     8
 71
     3
 72
    60
 73
    56
 74
     0
 42
0.00000001
 43
0.00000001
 40
0.0
 40
0.0
 40
0.0
 40
0.0
 40
0.0151459283830824
 40
0.0324109838526965
 40
0.0496972615987088
 40
0.0670721559303536
 40
0.0845991744536121
 40
0.1023352887528647
 40
0.1203276579252284
 40
0.1386098695096467
 40
0.1571982623657069
 40
0.1760893448594921
 40
0.1952595359028689
 40
0.2146680947946616
 40
0.2342630684692708
 40
0.2539888302178717
 40
0.2737931356811343
 40
0.293631845101995
 40
0.3134630698330833
 40
0.3332670850360188
 40
0.3530325594120964
 40
0.3727546331338163
 40
0.3924331327284805
 40
0.4120711286960576
 40
0.4316738578917775
 40
0.4512479619025035
 40
0.4708009717552836
 40
0.4903409719871293
 40
0.5098763878986222
 40
0.5294158200313436
 40
0.5489651458843516
 40
0.5685331655787489
 40
0.5881286467692212
 40
0.6077601928775174
 40
0.6274360343416656
 40
0.6471636944364204
 40
0.6669494684089775
 40
0.6867976393675077
 40
0.7067093437801912
 40
0.7266810077606378
 40
0.7467023295371329
 40
0.766753690277235
 40
0.7867914872722797
 40
0.8067680344272995
 40
0.8266244778014888
 40
0.8462958099068904
 40
0.8657191543957711
 40
0.8848434075558037
 40
0.9036372613348959
 40
0.9220932019358997
 40
0.9402269804771548
 40
0.9580738519001133
 40
0.9756835214510673
 40
0.9931153146780294
 40
1.0
 40
1.0
 40
1.0
 40
1.0
 10
275.0011346960607
 20
-15.85800678869813
 30
0.0
 10
275.1679609059744
 20
-15.95060883744478
 30
0.0
 10
275.5249546444211
 20
-16.14876925592443
 30
0.0
 10
276.1038782126013
 20
-16.39037641924532
 30
0.0
 10
276.7266651668775
 20
-16.59493259725689
 30
0.0
 10
277.3697671686421
 20
-16.74569039263552
 30
0.0
 10
278.0307434576627
 20
-16.84403288833431
 30
0.0
 10
278.7084892062265
 20
-16.88913032018307
 30
0.0
 10
279.4016173887451
 20
-16.88057493637871
 30
0.0
 10
280.1087065846179
 20
-16.81771801189668
 30
0.0
 10
280.8280221294469
 20
-16.6999747618509
 30
0.0
 10
281.557407419205
 20
-16.5269324990046
 30
0.0
 10
282.2942116001237
 20
-16.2985466193677
 30
0.0
 10
283.0353335323736
 20
-16.01528982733193
 30
0.0
 10
283.7773654161127
 20
-15.67823094501013
 30
0.0
 10
284.516798001132
 20
-15.28901389148145
 30
0.0
 10
285.250221435494
 20
-14.84975383361547
 30
0.0
 10
285.9743730794735
 20
-14.36295710607587
 30
0.0
 10
286.6863568428767
 20
-13.8313066233686
 30
0.0
 10
287.3836375008118
 20
-13.25753817704082
 30
0.0
 10
288.064078287973
 20
-12.6442740648598
 30
0.0
 10
288.7257313039982
 20
-11.9941030634592
 30
0.0
 10
289.3667822833449
 20
-11.30958139652528
 30
0.0
 10
289.9855082873503
 20
-10.59324324703211
 30
0.0
 10
290.5802489689794
 20
-9.847613465907578
 30
0.0
 10
291.1493891380696
 20
-9.075218559273384
 30
0.0
 10
291.6913496024096
 20
-8.278594261016924
 30
0.0
 10
292.2045834473712
 20
-7.460289314496739
 30
0.0
 10
292.6875751598456
 20
-6.622866257551569
 30
0.0
 10
293.1388195885028
 20
-5.768940350162479
 30
0.0
 10
293.5568521672679
 20
-4.901136226256243
 30
0.0
 10
293.9402500083934
 20
-4.022079619031376
 30
0.0
 10
294.2876446273315
 20
-3.134346957384366
 30
0.0
 10
294.597695595479
 20
-2.240503277540242
 30
0.0
 10
294.8690839579518
 20
-1.343101606489913
 30
0.0
 10
295.1005036316441
 20
-0.4446877002465457
 30
0.0
 10
295.2906516974154
 20
0.452187076995644
 30
0.0
 10
295.4382196113306
 20
1.344941481168895
 30
0.0
 10
295.541889020486
 20
2.230925351070233
 30
0.0
 10
295.6003381654385
 20
3.107363374310302
 30
0.0
 10
295.6122674694628
 20
3.971278832556612
 30
0.0
 10
295.5764635801665
 20
4.819233953015203
 30
0.0
 10
295.4919395487647
 20
5.647398709468151
 30
0.0
 10
295.3580905085471
 20
6.451548387344783
 30
0.0
 10
295.1748135239596
 20
7.227305481087962
 30
0.0
 10
294.9426446280896
 20
7.970203557069131
 30
0.0
 10
294.6628167556401
 20
8.675948925457554
 30
0.0
 10
294.3372221675615
 20
9.340706772409645
 30
0.0
 10
293.9682517650015
 20
9.961266591936763
 30
0.0
 10
293.558683717276
 20
10.53525526889659
 30
0.0
 10
293.1112140253647
 20
11.06058700685644
 30
0.0
 10
292.629354535175
 20
11.53714951246714
 30
0.0
 10
292.1135537221907
 20
11.96002103600321
 30
0.0
 10
291.6823434694689
 20
12.26718318578435
 30
0.0
 10
291.4141485503789
 20
12.41505930355963
 30
0.0
 10
291.3382149558343
 20
12.4569272300963
 30
0.0
  0
SPLINE
  5
119
330
1F
100
AcDbEntity
  8
0
  6
Continuous
 62
     7
370
    25
100
AcDbSpline
210
0.0
220
0.0
230
1.0
 70
     8
 71
     3
 72
    28
 73
    24
 74
     0
 42
0.00000001
 43
0.00000001
 40
0.0
 40
0.0
 40
0.0
 40
0.0
 40
0.0058943575851603
 40
0.0584385202753339
 40
0.1124199923915354
 40
0.1649926941641909
 40
0.2193258008796335
 40
0.2680568404774512
 40
0.3183603046055699
 40
0.364831965987639
 40
0.4124808138107658
 40
0.4624279355998783
 40
0.5136039001493087
 40
0.5677191556012922
 40
0.6234507504003197
 40
0.676464477824159
 40
0.7312835316957749
 40
0.780201022389615
 40
0.8306046906542865
 40
0.8786022783838963
 40
0.9278407992503866
 40
0.9788452890653265
 40
1.0
 40
1.0
 40
1.0
 40
1.0
 10
255.1224832435682
 20
5.923546977339859
 30
0.0
 10
255.125033813525
 20
5.957563517504274
 30
0.0
 10
255.1503209685675
 20
6.294814226063229
 30
0.0
 10
255.0530682751996
 20
6.949517066155455
 30
0.0
 10
254.7629250704663
 20
7.836492986778318
 30
0.0
 10
254.2577120767333
 20
8.654434087717986
 30
0.0
 10
253.586614044416
 20
9.326829732306669
 30
0.0
 10
252.7671046971935
 20
9.841270193003755
 30
0.0
 10
251.8698783847502
 20
10.17765553254968
 30
0.0
 10
250.8924622996913
 20
10.36186503255006
 30
0.0
 10
249.8581487776976
 20
10.40963090062171
 30
0.0
 10
248.751070424034
 20
10.32954738132124
 30
0.0
 10
247.5779196326562
 20
10.12717956100694
 30
0.0
 10
246.3665410638922
 20
9.812032005470778
 30
0.0
 10
245.1768580606089
 20
9.406871622971428
 30
0.0
 10
244.0528652672788
 20
8.938953609599595
 30
0.0
 10
243.0776295093364
 20
8.454279155137975
 30
0.0
 10
242.2496999624828
 20
7.96392956696421
 30
0.0
 10
241.6017722641667
 20
7.495658543993009
 30
0.0
 10
241.1079611883245
 20
7.035929131921992
 30
0.0
 10
240.7885521585208
 20
6.58723027692106
 30
0.0
 10
240.6354027468463
 20
6.228920771957479
 30
0.0
 10
240.6596347924354
 20
6.019207820630808
 30
0.0
 10
240.6667388334235
 20
5.957726861605681
 30
0.0
  0
LWPOLYLINE
  5
11A
330
1F
100
AcDbEntity
  8
0
  6
Continuous
 62
     7
370
    25
100
AcDbPolyline
 90
       66
 70
   128
 43
0.0
 10
252.8360401248
 20
-8.2342654093
 10
252.3352133598
 20
-8.4967075076
 10
251.792848221
 20
-8.7300202157
 10
251.2140086254
 20
-8.9320251558
 10
250.6040990424
 20
-9.1008362621
 10
249.9688140334
 20
-9.2348773909
 10
249.3140850835
 20
-9.3328970361
 10
248.6460252204
 20
-9.3939800149
 10
247.970871939
 20
-9.4175560119
 10
247.2949289636
 20
-9.4034049044
 10
246.6245073918
 20
-9.3516588174
 10
245.9658667689
 20
-9.2628008902
 10
245.3251566452
 20
-9.1376607654
 10
244.7083591583
 20
-8.9774068425
 10
244.1212331802
 20
-8.7835353693
 10
243.5692605481
 20
-8.5578564715
 10
243.0575948815
 20
-8.3024772521
 10
242.5910134651
 20
-8.0197821181
 10
242.1738726437
 20
-7.7124105178
 10
241.8100671489
 20
-7.3832322971
 10
241.5029937345
 20
-7.0353209042
 10
241.2555194622
 20
-6.6719246941
 10
241.0699549327
 20
-6.2964365993
 10
240.948032712
 20
-5.9123624511
 10
240.8908911549
 20
-5.5232882461
 10
240.8990637769
 20
-5.1328466655
 10
240.9724742723
 20
-4.744683157
 10
241.1104372271
 20
-4.3624218988
 10
241.3116645184
 20
-3.9896319613
 10
241.5742773412
 20
-3.6297939836
 10
241.8958237503
 20
-3.2862676761
 10
242.2733015536
 20
-2.9622604511
 10
242.7031863424
 20
-2.6607974771
 10
243.1814643984
 20
-2.3846934324
 10
243.7036701682
 20
-2.1365262262
 10
244.2649279572
 20
-1.9186129288
 10
244.8599974527
 20
-1.7329881379
 10
245.4833226511
 20
-1.5813849823
 10
246.129083733
 20
-1.4652189397
 10
246.7912514012
 20
-1.3855746211
 10
247.4636431745
 20
-1.3431956442
 10
248.1399811122
 20
-1.33847769
 10
248.8139504291
 20
-1.3714648087
 10
249.4792584553
 20
-1.4418490086
 10
250.129693389
 20
-1.5489731313
 10
250.7591822946
 20
-1.6918369877
 10
251.3618478037
 20
-1.8691066965
 10
251.9320629908
 20
-2.0791271383
 10
252.4645039104
 20
-2.3199374087
 10
252.954199305
 20
-2.5892891271
 10
253.3965770207
 20
-2.884667429
 10
253.787506696
 20
-3.203314447
 10
254.1233383258
 20
-3.5422550596
 10
254.4009363406
 20
-3.8983246696
 10
254.6177088827
 20
-4.2681987511
 10
254.7716320051
 20
-4.6484238893
 10
254.8612685692
 20
-5.0354500247
 10
254.8857816624
 20
-5.4256635984
 10
254.8449424128
 20
-5.8154212915
 10
254.7391321253
 20
-6.2010840414
 10
254.569338722
 20
-6.579051019
 10
254.3371475183
 20
-6.9457932483
 10
254.0447264208
 20
-7.2978865561
 10
253.6948056866
 20
-7.6320435419
 10
253.2906524312
 20
-7.945144272
 10
252.8360401248
 20
-8.2342654093
  0
LWPOLYLINE
  5
11B
330
1F
100
AcDbEntity
  8
0
  6
Continuous
 62
     7
370
    25
100
AcDbPolyline
 90
       55
 70
   128
 43
0.0
 10
251.2450498671
 20
-7.3158062835
 10
250.83241124
 20
-7.5277962594
 10
250.379931413
 20
-7.7106982015
 10
249.8937293997
 20
-7.8620386748
 10
249.3803802482
 20
-7.979771059
 10
248.846826125
 20
-8.0623032256
 10
248.3002824345
 20
-8.1085190687
 10
247.7481402424
 20
-8.1177935981
 10
247.1978663247
 20
-8.0900013919
 10
246.6569021922
 20
-8.0255182918
 10
246.1325634567
 20
-7.9252163214
 10
245.6319409002
 20
-7.7904518925
 10
245.1618045838
 20
-7.623047463
 10
244.7285122948
 20
-7.4252668906
 10
244.3379235681
 20
-7.1997848182
 10
243.9953204461
 20
-6.949650504
 10
243.7053360483
 20
-6.6782465855
 10
243.4718919164
 20
-6.3892433352
 10
243.2981449816
 20
-6.0865490263
 10
243.1864448732
 20
-5.7742570799
 10
243.1383021436
 20
-5.4565907089
 10
243.1543678405
 20
-5.1378458061
 10
243.2344247031
 20
-4.8223328494
 10
243.3773900995
 20
-4.5143186104
 10
243.581330668
 20
-4.2179684532
 10
243.8434884624
 20
-3.9372900053
 10
244.1603182481
 20
-3.6760789613
 10
244.5275354458
 20
-3.4378677523
 10
244.9401740729
 20
-3.2258777764
 10
245.3926538999
 20
-3.0429758343
 10
245.8788559132
 20
-2.891635361
 10
246.3922050647
 20
-2.7739029768
 10
246.9257591879
 20
-2.6913708102
 10
247.4723028784
 20
-2.6451549672
 10
248.0244450705
 20
-2.6358804377
 10
248.5747189882
 20
-2.663672644
 10
249.1156831207
 20
-2.728155744
 10
249.6400218562
 20
-2.8284577144
 10
250.1406444128
 20
-2.9632221433
 10
250.6107807291
 20
-3.1306265728
 10
251.0440730181
 20
-3.3284071452
 10
251.4346617448
 20
-3.5538892176
 10
251.7772648668
 20
-3.8040235318
 10
252.0672492646
 20
-4.0754274503
 10
252.3006933965
 20
-4.3644307006
 10
252.4744403313
 20
-4.6671250095
 10
252.5861404397
 20
-4.9794169559
 10
252.6342831693
 20
-5.2970833269
 10
252.6182174724
 20
-5.6158282297
 10
252.5381606098
 20
-5.9313411864
 10
252.3951952134
 20
-6.2393554254
 10
252.1912546449
 20
-6.5357055826
 10
251.9290968505
 20
-6.8163840305
 10
251.6122670648
 20
-7.0775950745
 10
251.2450498671
 20
-7.3158062835
  0
LWPOLYLINE
  5
11C
330
1F
100
AcDbEntity
  8
0
  6
Continuous
 62
     7
370
    25
100
AcDbPolyline
 90
       98
 70
   128
 43
0.0
 10
230.1283159628
 20
16.3898871124
 10
230.1510788737
 20
17.2143450263
 10
230.2192721307
 20
18.0616263747
 10
230.3326097076
 20
18.928177365
 10
230.4906162273
 20
19.8103633814
 10
230.6926289555
 20
20.7044842291
 10
230.9378005806
 20
21.6067896545
 10
231.2251027676
 20
22.5134950751
 10
231.5533304713
 20
23.4207974533
 10
231.9211069906
 20
24.3248912475
 10
232.3268897431
 20
25.2219843742
 10
232.7689767347
 20
26.1083141131
 10
233.2455136991
 20
26.9801628893
 10
233.7545018746
 20
27.8338738659
 10
234.2938063879
 20
28.6658662824
 10
234.8611652084
 20
29.4726504735
 10
235.4541986362
 20
30.250842506
 10
236.0704192828
 20
30.997178372
 10
236.7072425049
 20
31.7085276796
 10
237.3619972443
 20
32.3819067824
 10
238.0319372323
 20
33.0144912946
 10
238.7142525077
 20
33.6036279368
 10
239.4060812032
 20
34.1468456653
 10
240.1045215486
 20
34.6418660361
 10
240.8066440426
 20
35.0866127617
 10
241.5095037393
 20
35.4792204198
 10
242.210152601
 20
35.8180422775
 10
242.9056518628
 20
36.1016571981
 10
243.5930843591
 20
36.3288756021
 10
244.2695667591
 20
36.4987444566
 10
244.9322616606
 20
36.6105512725
 10
245.5783894908
 20
36.6638270931
 10
246.205240165
 20
36.6583484613
 10
246.8101844537
 20
36.5941383562
 10
247.3906850103
 20
36.4714660974
 10
247.9443070138
 20
36.290846215
 10
248.468728381
 20
36.0530362914
 10
248.9617495064
 20
35.7590337843
 10
249.4213024883
 20
35.4100718421
 10
249.8454598015
 20
35.0076141328
 10
250.232442383
 20
34.5533487036
 10
250.5806270934
 20
34.0491809017
 10
250.8885535249
 20
33.4972253821
 10
251.1549301271
 20
32.899797238
 10
251.3786396239
 20
32.2594022907
 10
251.5587437
 20
31.5787265791
 10
251.6944869363
 20
30.8606250938
 10
251.7852999784
 20
30.108109802
 10
251.830801925
 20
29.3243370142
 10
251.830801925
 20
28.5125941459
 10
251.7852999784
 20
27.6762859288
 10
251.6944869363
 20
26.8189201303
 10
251.5587437
 20
25.9440928404
 10
251.3786396239
 20
25.0554733888
 10
251.1549301271
 20
24.1567889543
 10
250.8885535249
 20
23.2518089318
 10
250.5806270934
 20
22.3443291219
 10
250.232442383
 20
21.4381558104
 10
249.8454598015
 20
20.537089803
 10
249.4213024883
 20
19.6449104837
 10
248.9617495064
 20
18.7653599627
 10
248.468728381
 20
17.9021273804
 10
247.9443070138
 20
17.0588334344
 10
247.3906850103
 20
16.2390151925
 10
246.8101844537
 20
15.4461112573
 10
246.205240165
 20
14.6834473435
 10
245.5783894908
 20
13.9542223286
 10
244.9322616606
 20
13.2614948357
 10
244.2695667591
 20
12.6081704046
 10
243.5930843591
 20
11.9969893051
 10
242.9056518628
 20
11.4305150431
 10
242.210152601
 20
10.9111236086
 10
241.5095037393
 20
10.4409935096
 10
240.8066440426
 20
10.0220966352
 10
240.1045215486
 20
9.6561899845
 10
239.4060812032
 20
9.3448082972
 10
238.7142525077
 20
9.0892576162
 10
238.0319372323
 20
8.8906098099
 10
237.3619972443
 20
8.7496980763
 10
236.7072425049
 20
8.667113448
 10
236.0704192828
 20
8.6432023139
 10
235.4541986362
 20
8.6780649654
 10
234.8611652084
 20
8.7715551765
 10
234.2938063879
 20
8.9232808167
 10
233.7545018746
 20
9.1326054961
 10
233.2455136991
 20
9.398651234
 10
232.7689767347
 20
9.7203021424
 10
232.3268897431
 20
10.0962091054
 10
231.9211069906
 20
10.5247954386
 10
231.5533304713
 20
11.004263502
 10
231.2251027676
 20
11.53260224
 10
230.9378005806
 20
12.1075956162
 10
230.6926289555
 20
12.7268319085
 10
230.4906162273
 20
13.3877138249
 10
230.3326097076
 20
14.0874693968
 10
230.2192721307
 20
14.8231636062
 10
230.1510788737
 20
15.5917106959
 10
230.1283159628
 20
16.3898871124
  0
LINE
  5
11D
330
1F
100
AcDbEntity
  8
0
  6
Continuous
 62
     7
370
    25
100
AcDbLine
 10
233.5311902033
 20
8.0785078703
 30
0.0
 11
233.5151761959
 21
8.0877164148
 31
0.0
  0
LWPOLYLINE
  5
11E
330
1F
100
AcDbEntity
  8
0
  6
Continuous
 62
     7
370
    25
100
AcDbPolyline
 90
       80
 70
   128
 43
0.0
 10
233.805271225
 20
18.5125482031
 10
233.8279593005
 20
19.1841199343
 10
233.8958800855
 20
19.8776408671
 10
234.008604163
 20
20.5887263389
 10
234.1654188551
 20
21.3128806384
 10
234.3653327289
 20
22.0455254289
 10
234.6070818643
 20
22.7820286942
 10
234.8891378457
 20
23.5177340236
 10
235.2097174242
 20
24.247990051
 10
235.5667937925
 20
24.9681798627
 10
235.9581093989
 20
25.6737501869
 10
236.3811902201
 20
26.3602401808
 10
236.8333614029
 20
27.0233096336
 10
237.3117641756
 20
27.6587664067
 10
237.8133739217
 20
28.2625929379
 10
238.335019303
 20
28.8309716414
 10
238.8734023094
 20
29.360309044
 10
239.4251191102
 20
29.8472585043
 10
239.9866815741
 20
30.2887413709
 10
240.5545393225
 20
30.681966447
 10
241.1251021757
 20
31.0244476372
 10
241.6947628519
 20
31.314019665
 10
242.2599197726
 20
31.5488517628
 10
242.816999834
 20
31.7274592466
 10
243.3624809965
 20
31.8487129023
 10
243.8929145526
 20
31.9118461252
 10
244.4049469305
 20
31.9164597668
 10
244.8953408968
 20
31.8625246582
 10
245.3609960227
 20
31.7503817944
 10
245.7989682868
 20
31.5807401789
 10
246.2064886874
 20
31.3546723404
 10
246.5809807492
 20
31.0736075527
 10
246.9200768129
 20
30.7393227978
 10
247.221633004
 20
30.3539315316
 10
247.4837427871
 20
29.9198703217
 10
247.7047490199
 20
29.4398834429
 10
247.8832544297
 20
28.9170055268
 10
248.0181304479
 20
28.3545423759
 10
248.1085243448
 20
27.7560500633
 10
248.1538646212
 20
27.1253124502
 10
248.1538646212
 20
26.4663172627
 10
248.1085243448
 20
25.7832308808
 10
248.0181304479
 20
25.0803719963
 10
247.8832544297
 20
24.3621843095
 10
247.7047490199
 20
23.6332084341
 10
247.4837427871
 20
22.8980531904
 10
247.221633004
 20
22.1613664665
 10
246.9200768129
 20
21.427805833
 10
246.5809807492
 20
20.7020090966
 10
246.2064886874
 20
19.9885649777
 10
245.7989682868
 20
19.2919840999
 10
245.3609960227
 20
18.6166704717
 10
244.8953408968
 20
17.9668936434
 10
244.4049469305
 20
17.3467617132
 10
243.8929145526
 20
16.7601953549
 10
243.3624809965
 20
16.2109030298
 10
242.816999834
 20
15.7023575409
 10
242.2599197726
 20
15.2377740765
 10
241.6947628519
 20
14.8200898828
 10
241.1251021757
 20
14.4519456938
 10
240.5545393225
 20
14.1356690357
 10
239.9866815741
 20
13.8732595112
 10
239.4251191102
 20
13.6663761578
 10
238.8734023094
 20
13.5163269588
 10
238.335019303
 20
13.4240605734
 10
237.8133739217
 20
13.3901603395
 10
237.3117641756
 20
13.4148405853
 10
236.8333614029
 20
13.4979452743
 10
236.3811902201
 20
13.6389489919
 10
235.9581093989
 20
13.8369602671
 10
235.5667937925
 20
14.0907272091
 10
235.2097174242
 20
14.3986454214
 10
234.8891378457
 20
14.758768146
 10
234.6070818643
 20
15.168818571
 10
234.3653327289
 20
15.6262042257
 10
234.1654188551
 20
16.1280333707
 10
234.008604163
 20
16.6711332805
 10
233.8958800855
 20
17.2520703026
 10
233.8279593005
 20
17.8671715663
 10
233.805271225
 20
18.5125482031
  0
LWPOLYLINE
  5
11F
330
1F
100
AcDbEntity
  8
0
  6
Continuous
 62
     7
370
    25
100
AcDbPolyline
 90
       34
 70
   128
 43
0.0
 10
240.8868256922
 20
42.7672852946
 10
240.8990637769
 20
42.9614071546
 10
240.9724742723
 20
43.3495706631
 10
241.1104372271
 20
43.7318319212
 10
241.3116645184
 20
44.1046218588
 10
241.5742773412
 20
44.4644598364
 10
241.8958237503
 20
44.807986144
 10
242.2733015536
 20
45.1319933689
 10
242.7031863424
 20
45.433456343
 10
243.1814643984
 20
45.7095603877
 10
243.7036701682
 20
45.9577275939
 10
244.2649279572
 20
46.1756408913
 10
244.8599974527
 20
46.3612656821
 10
245.4833226511
 20
46.5128688378
 10
246.129083733
 20
46.6290348804
 10
246.7912514012
 20
46.7086791989
 10
247.4636431745
 20
46.7510581759
 10
248.1399811122
 20
46.7557761301
 10
248.8139504291
 20
46.7227890114
 10
249.4792584553
 20
46.6524048115
 10
250.129693389
 20
46.5452806888
 10
250.7591822946
 20
46.4024168324
 10
251.3618478037
 20
46.2251471235
 10
251.9320629908
 20
46.0151266818
 10
252.4645039104
 20
45.7743164114
 10
252.954199305
 20
45.504964693
 10
253.3965770207
 20
45.209586391
 10
253.787506696
 20
44.8909393731
 10
254.1233383258
 20
44.5519987605
 10
254.4009363406
 20
44.1959291505
 10
254.6177088827
 20
43.826055069
 10
254.7716320051
 20
43.4458299308
 10
254.8612685692
 20
43.0588037954
 10
254.8857596207
 20
42.7672852946
  0
LWPOLYLINE
  5
120
330
1F
100
AcDbEntity
  8
0
  6
Continuous
 62
     1
370
    25
100
AcDbPolyline
 90
       52
 70
   128
 43
0.0
 10
249.8720414845
 20
36.402774422
 10
250.1172609217
 20
36.2518579246
 10
250.5975663572
 20
35.9000179083
 10
251.0427157713
 20
35.4942980961
 10
251.4509523625
 20
35.0362996788
 10
251.8206650075
 20
34.5278301669
 10
252.1503946194
 20
33.9708962572
 10
252.4388399061
 20
33.3676959136
 10
252.6848625058
 20
32.7206096921
 10
252.8874914798
 20
32.0321913465
 10
253.0459271439
 20
31.3051577494
 10
253.159544225
 20
30.5423781703
 10
253.2278943285
 20
29.7468629518
 10
253.2507077076
 20
28.9217516289
 10
253.2278943285
 20
28.0703005391
 10
253.159544225
 20
27.1958699708
 10
253.0459271439
 20
26.3019109021
 10
252.8874914798
 20
25.3919513809
 10
252.6848625058
 20
24.4695826017
 10
252.4388399061
 20
23.5384447328
 10
252.1503946194
 20
22.6022125499
 10
251.8206650075
 20
21.6645809338
 10
251.4509523625
 20
20.7292502879
 10
251.0427157713
 20
19.7999119352
 10
250.5975663572
 20
18.8802335494
 10
250.1172609217
 20
17.9738446811
 10
249.6036950108
 20
17.0843224329
 10
249.0588954345
 20
16.2151773429
 10
248.4850122679
 20
15.3698395296
 10
247.8843103657
 20
14.5516451551
 10
247.2591604238
 20
13.763823259
 10
246.6120296234
 20
13.0094830142
 10
245.9454718943
 20
12.291601457
 10
245.2621178351
 20
11.6130117381
 10
244.5646643322
 20
10.9763919411
 10
243.855863916
 20
10.3842545133
 10
243.1385138978
 20
9.8389363508
 10
242.4154453304
 20
9.3425895752
 10
241.6895118352
 20
8.8971730404
 10
240.96357834
 20
8.504444602
 10
240.2405097727
 20
8.1659541798
 10
239.5231597545
 20
7.8830376408
 10
238.8143593382
 20
7.6568115273
 10
238.1169058354
 20
7.4881686504
 10
237.4335517762
 20
7.3777745666
 10
236.766994047
 20
7.3260649509
 10
236.1198632467
 20
7.3332438774
 10
235.4947133048
 20
7.3992830142
 10
234.8940114026
 20
7.5239217351
 10
234.320128236
 20
7.7066681479
 10
233.7753286597
 20
7.9468010361
 10
233.5311902033
 20
8.0785078703
  0
LWPOLYLINE
  5
121
330
1F
100
AcDbEntity
  8
0
  6
Continuous
 62
     1
370
    25
100
AcDbPolyline
 90
       52
 70
   128
 43
0.0
 10
291.3402645043
 20
12.463688322
 10
291.5936779514
 20
12.308032032
 10
292.073983387
 20
11.9561920157
 10
292.519132801
 20
11.5504722035
 10
292.9273693922
 20
11.0924737862
 10
293.2970820373
 20
10.5840042743
 10
293.6268116492
 20
10.0270703646
 10
293.9152569359
 20
9.423870021
 10
294.1612795356
 20
8.7767837995
 10
294.3639085095
 20
8.0883654539
 10
294.5223441736
 20
7.3613318568
 10
294.6359612548
 20
6.5985522777
 10
294.7043113582
 20
5.8030370591
 10
294.7271247374
 20
4.9779257362
 10
294.7043113582
 20
4.1264746464
 10
294.6359612548
 20
3.2520440782
 10
294.5223441736
 20
2.3580850094
 10
294.3639085095
 20
1.4481254883
 10
294.1612795356
 20
0.5257567091
 10
293.9152569359
 20
-0.4053811598
 10
293.6268116492
 20
-1.3416133427
 10
293.2970820373
 20
-2.2792449588
 10
292.9273693922
 20
-3.2145756047
 10
292.519132801
 20
-4.1439139574
 10
292.073983387
 20
-5.0635923432
 10
291.5936779514
 20
-5.9699812115
 10
291.0801120405
 20
-6.8595034597
 10
290.5353124642
 20
-7.7286485497
 10
289.9614292976
 20
-8.573986363
 10
289.3607273954
 20
-9.3921807375
 10
288.7355774535
 20
-10.1800026336
 10
288.0884466532
 20
-10.9343428785
 10
287.421888924
 20
-11.6522244356
 10
286.7385348648
 20
-12.3308141545
 10
286.041081362
 20
-12.9674339515
 10
285.3322809457
 20
-13.5595713793
 10
284.6149309275
 20
-14.1048895418
 10
283.8918623602
 20
-14.6012363174
 10
283.165928865
 20
-15.0466528522
 10
282.4399953698
 20
-15.4393812906
 10
281.7169268024
 20
-15.7778717128
 10
280.9995767842
 20
-16.0607882518
 10
280.290776368
 20
-16.2870143653
 10
279.5933228651
 20
-16.4556572422
 10
278.909968806
 20
-16.566051326
 10
278.2434110768
 20
-16.6177609418
 10
277.5962802764
 20
-16.6105820152
 10
276.9711303345
 20
-16.5445428784
 10
276.3704284323
 20
-16.4199041575
 10
275.7965452657
 20
-16.2371577447
 10
275.2517456895
 20
-15.9970248565
 10
274.9915932257
 20
-15.8561094778
  0
ENDSEC
  0
SECTION
  2
OBJECTS
  0
DICTIONARY
  5
C
330
0
100
AcDbDictionary
281
     1
  3
ACAD_GROUP
350
D
  3
ACAD_LAYOUT
350
1A
  3
ACAD_MLINESTYLE
350
17
  3
ACAD_PLOTSETTINGS
350
19
  3
ACAD_PLOTSTYLENAME
350
E
  3
ACAD_SCALELIST
350
47
  3
DWGPROPS
350
122
  0
DICTIONARY
  5
D
102
{ACAD_REACTORS
330
C
102
}
330
C
100
AcDbDictionary
281
     1
  0
DICTIONARY
  5
1A
102
{ACAD_REACTORS
330
C
102
}
330
C
100
AcDbDictionary
281
     1
  3
Layout1
350
1E
  3
Layout2
350
26
  3
Model
350
22
  0
DICTIONARY
  5
17
102
{ACAD_REACTORS
330
C
102
}
330
C
100
AcDbDictionary
281
     1
  3
Standard
350
18
  0
DICTIONARY
  5
19
102
{ACAD_REACTORS
330
C
102
}
330
C
100
AcDbDictionary
281
     1
  0
ACDBDICTIONARYWDFLT
  5
E
102
{ACAD_REACTORS
330
C
102
}
330
C
100
AcDbDictionary
281
     1
  3
Normal
350
F
100
AcDbDictionaryWithDefault
340
F
  0
DICTIONARY
  5
47
102
{ACAD_REACTORS
330
C
102
}
330
C
100
AcDbDictionary
281
     1
  3
A0
350
48
  3
A1
350
49
  3
A2
350
4A
  3
A3
350
4B
  3
A4
350
4C
  3
A5
350
4D
  3
A6
350
4E
  3
A7
350
4F
  3
A8
350
50
  3
A9
350
51
  3
B0
350
52
  3
B1
350
53
  3
B2
350
54
  3
B3
350
55
  3
B4
350
56
  3
B5
350
57
  3
B6
350
58
  3
B7
350
59
  3
B8
350
5A
  3
B9
350
5B
  3
C0
350
5C
  3
C1
350
5D
  3
C2
350
5E
  3
C3
350
5F
  3
C4
350
60
  3
C5
350
61
  3
C6
350
62
  3
C7
350
63
  3
C8
350
64
  3
C9
350
65
  3
D0
350
66
  3
D1
350
67
  3
D2
350
68
  0
XRECORD
  5
122
102
{ACAD_REACTORS
330
C
102
}
330
C
100
AcDbXrecord
280
     1
  1
DWGPROPS COOKIE
  2

  3

  4

  6

  7

  8
b.kav
  9

300
=
301
=
302
=
303
=
304
=
305
=
306
=
307
=
308
=
309
=
 40
0.0
 41
2460340.605290255
 42
2460340.60529044
  1

 90
        0
  0
LAYOUT
  5
1E
102
{ACAD_REACTORS
330
1A
102
}
330
1A
100
AcDbPlotSettings
  1

  2
none_device
  4

  6

 40
0.0
 41
0.0
 42
0.0
 43
0.0
 44
0.0
 45
0.0
 46
0.0
 47
0.0
 48
0.0
 49
0.0
140
0.0
141
0.0
142
1.0
143
1.0
 70
   688
 72
     1
 73
     0
 74
     5
  7

 75
    16
147
1.0
148
0.0
149
0.0
100
AcDbLayout
  1
Layout1
 70
     1
 71
     1
 10
0.0
 20
0.0
 11
420.0
 21
297.0
 12
0.0
 22
0.0
 32
0.0
 14
1.0000000000E+20
 24
1.0000000000E+20
 34
1.0000000000E+20
 15
-1.0000000000E+20
 25
-1.0000000000E+20
 35
-1.0000000000E+20
146
0.0
 13
0.0
 23
0.0
 33
0.0
 16
1.0
 26
0.0
 36
0.0
 17
0.0
 27
1.0
 37
0.0
 76
     0
330
1B
  0
LAYOUT
  5
26
102
{ACAD_REACTORS
330
1A
102
}
330
1A
100
AcDbPlotSettings
  1

  2
none_device
  4

  6

 40
0.0
 41
0.0
 42
0.0
 43
0.0
 44
0.0
 45
0.0
 46
0.0
 47
0.0
 48
0.0
 49
0.0
140
0.0
141
0.0
142
1.0
143
1.0
 70
   688
 72
     1
 73
     0
 74
     5
  7

 75
    16
147
1.0
148
0.0
149
0.0
100
AcDbLayout
  1
Layout2
 70
     1
 71
     2
 10
0.0
 20
0.0
 11
0.0
 21
0.0
 12
0.0
 22
0.0
 32
0.0
 14
0.0
 24
0.0
 34
0.0
 15
0.0
 25
0.0
 35
0.0
146
0.0
 13
0.0
 23
0.0
 33
0.0
 16
1.0
 26
0.0
 36
0.0
 17
0.0
 27
1.0
 37
0.0
 76
     0
330
23
  0
LAYOUT
  5
22
102
{ACAD_REACTORS
330
1A
102
}
330
1A
100
AcDbPlotSettings
  1

  2
none_device
  4
Letter_(8.50_x_11.00_Inches)
  6

 40
6.35
 41
6.35
 42
6.35000508
 43
6.35000508
 44
215.9
 45
279.4
 46
0.0
 47
0.0
 48
0.0
 49
0.0
140
0.0
141
0.0
142
1.0
143
1.0
 70
  1712
 72
     1
 73
     0
 74
     0
  7

 75
     0
147
1.0
148
0.0
149
0.0
100
AcDbLayout
  1
Model
 70
     1
 71
     0
 10
0.0
 20
0.0
 11
279.4
 21
215.9
 12
0.0
 22
0.0
 32
0.0
 14
0.0
 24
0.0
 34
0.0
 15
279.4
 25
215.9
 35
0.0
146
0.0
 13
0.0
 23
0.0
 33
0.0
 16
1.0
 26
0.0
 36
0.0
 17
0.0
 27
1.0
 37
0.0
 76
     0
330
1F
331
29
  0
MLINESTYLE
  5
18
102
{ACAD_REACTORS
330
17
102
}
330
17
100
AcDbMlineStyle
  2
Standard
 70
     0
  3

 62
   256
 51
90.0
 52
90.0
 71
     2
 49
0.5
 62
   256
  6
BYLAYER
 49
-0.5
 62
   256
  6
BYLAYER
  0
ACDBPLACEHOLDER
  5
F
102
{ACAD_REACTORS
330
E
102
}
330
E
  0
SCALE
  5
48
102
{ACAD_REACTORS
330
47
102
}
330
47
100
AcDbScale
 70
     0
300
1:1
140
1.0
141
1.0
290
     1
  0
SCALE
  5
49
102
{ACAD_REACTORS
330
47
102
}
330
47
100
AcDbScale
 70
     0
300
1:2
140
1.0
141
2.0
290
     0
  0
SCALE
  5
4A
102
{ACAD_REACTORS
330
47
102
}
330
47
100
AcDbScale
 70
     0
300
1:4
140
1.0
141
4.0
290
     0
  0
SCALE
  5
4B
102
{ACAD_REACTORS
330
47
102
}
330
47
100
AcDbScale
 70
     0
300
1:5
140
1.0
141
5.0
290
     0
  0
SCALE
  5
4C
102
{ACAD_REACTORS
330
47
102
}
330
47
100
AcDbScale
 70
     0
300
1:8
140
1.0
141
8.0
290
     0
  0
SCALE
  5
4D
102
{ACAD_REACTORS
330
47
102
}
330
47
100
AcDbScale
 70
     0
300
1:10
140
1.0
141
10.0
290
     0
  0
SCALE
  5
4E
102
{ACAD_REACTORS
330
47
102
}
330
47
100
AcDbScale
 70
     0
300
1:16
140
1.0
141
16.0
290
     0
  0
SCALE
  5
4F
102
{ACAD_REACTORS
330
47
102
}
330
47
100
AcDbScale
 70
     0
300
1:20
140
1.0
141
20.0
290
     0
  0
SCALE
  5
50
102
{ACAD_REACTORS
330
47
102
}
330
47
100
AcDbScale
 70
     0
300
1:30
140
1.0
141
30.0
290
     0
  0
SCALE
  5
51
102
{ACAD_REACTORS
330
47
102
}
330
47
100
AcDbScale
 70
     0
300
1:40
140
1.0
141
40.0
290
     0
  0
SCALE
  5
52
102
{ACAD_REACTORS
330
47
102
}
330
47
100
AcDbScale
 70
     0
300
1:50
140
1.0
141
50.0
290
     0
  0
SCALE
  5
53
102
{ACAD_REACTORS
330
47
102
}
330
47
100
AcDbScale
 70
     0
300
1:100
140
1.0
141
100.0
290
     0
  0
SCALE
  5
54
102
{ACAD_REACTORS
330
47
102
}
330
47
100
AcDbScale
 70
     0
300
2:1
140
2.0
141
1.0
290
     0
  0
SCALE
  5
55
102
{ACAD_REACTORS
330
47
102
}
330
47
100
AcDbScale
 70
     0
300
4:1
140
4.0
141
1.0
290
     0
  0
SCALE
  5
56
102
{ACAD_REACTORS
330
47
102
}
330
47
100
AcDbScale
 70
     0
300
8:1
140
8.0
141
1.0
290
     0
  0
SCALE
  5
57
102
{ACAD_REACTORS
330
47
102
}
330
47
100
AcDbScale
 70
     0
300
10:1
140
10.0
141
1.0
290
     0
  0
SCALE
  5
58
102
{ACAD_REACTORS
330
47
102
}
330
47
100
AcDbScale
 70
     0
300
100:1
140
100.0
141
1.0
290
     0
  0
SCALE
  5
59
102
{ACAD_REACTORS
330
47
102
}
330
47
100
AcDbScale
 70
     0
300
1/128" = 1'-0"
140
0.0078125
141
12.0
290
     0
  0
SCALE
  5
5A
102
{ACAD_REACTORS
330
47
102
}
330
47
100
AcDbScale
 70
     0
300
1/64" = 1'-0"
140
0.015625
141
12.0
290
     0
  0
SCALE
  5
5B
102
{ACAD_REACTORS
330
47
102
}
330
47
100
AcDbScale
 70
     0
300
1/32" = 1'-0"
140
0.03125
141
12.0
290
     0
  0
SCALE
  5
5C
102
{ACAD_REACTORS
330
47
102
}
330
47
100
AcDbScale
 70
     0
300
1/16" = 1'-0"
140
0.0625
141
12.0
290
     0
  0
SCALE
  5
5D
102
{ACAD_REACTORS
330
47
102
}
330
47
100
AcDbScale
 70
     0
300
3/32" = 1'-0"
140
0.09375
141
12.0
290
     0
  0
SCALE
  5
5E
102
{ACAD_REACTORS
330
47
102
}
330
47
100
AcDbScale
 70
     0
300
1/8" = 1'-0"
140
0.125
141
12.0
290
     0
  0
SCALE
  5
5F
102
{ACAD_REACTORS
330
47
102
}
330
47
100
AcDbScale
 70
     0
300
3/16" = 1'-0"
140
0.1875
141
12.0
290
     0
  0
SCALE
  5
60
102
{ACAD_REACTORS
330
47
102
}
330
47
100
AcDbScale
 70
     0
300
1/4" = 1'-0"
140
0.25
141
12.0
290
     0
  0
SCALE
  5
61
102
{ACAD_REACTORS
330
47
102
}
330
47
100
AcDbScale
 70
     0
300
3/8" = 1'-0"
140
0.375
141
12.0
290
     0
  0
SCALE
  5
62
102
{ACAD_REACTORS
330
47
102
}
330
47
100
AcDbScale
 70
     0
300
1/2" = 1'-0"
140
0.5
141
12.0
290
     0
  0
SCALE
  5
63
102
{ACAD_REACTORS
330
47
102
}
330
47
100
AcDbScale
 70
     0
300
3/4" = 1'-0"
140
0.75
141
12.0
290
     0
  0
SCALE
  5
64
102
{ACAD_REACTORS
330
47
102
}
330
47
100
AcDbScale
 70
     0
300
1" = 1'-0"
140
1.0
141
12.0
290
     0
  0
SCALE
  5
65
102
{ACAD_REACTORS
330
47
102
}
330
47
100
AcDbScale
 70
     0
300
1-1/2" = 1'-0"
140
1.5
141
12.0
290
     0
  0
SCALE
  5
66
102
{ACAD_REACTORS
330
47
102
}
330
47
100
AcDbScale
 70
     0
300
3" = 1'-0"
140
3.0
141
12.0
290
     0
  0
SCALE
  5
67
102
{ACAD_REACTORS
330
47
102
}
330
47
100
AcDbScale
 70
     0
300
6" = 1'-0"
140
6.0
141
12.0
290
     0
  0
SCALE
  5
68
102
{ACAD_REACTORS
330
47
102
}
330
47
100
AcDbScale
 70
     0
300
1'-0" = 1'-0"
140
12.0
141
12.0
290
     0
  0
ENDSEC
  0
EOF
